  0
SECTION
  2
HEADER
  9
$ACADVER
  1
AC1015
  9
$ACADMAINTVER
 70
     6
  9
$DWGCODEPAGE
  3
ANSI_1254
  9
$INSBASE
 10
0.0
 20
0.0
 30
0.0
  9
$EXTMIN
 10
0.0
 20
0.0
 30
0.0
  9
$EXTMAX
 10
279.4
 20
215.9
 30
0.0
  9
$LIMMIN
 10
0.0
 20
0.0
  9
$LIMMAX
 10
279.4
 20
215.9
  9
$ORTHOMODE
 70
     0
  9
$REGENMODE
 70
     1
  9
$FILLMODE
 70
     1
  9
$QTEXTMODE
 70
     0
  9
$MIRRTEXT
 70
     1
  9
$LTSCALE
 40
1.0
  9
$ATTMODE
 70
     1
  9
$TEXTSIZE
 40
3.5
  9
$TRACEWID
 40
1.0
  9
$TEXTSTYLE
  7
Standard
  9
$CLAYER
  8
0
  9
$CELTYPE
  6
ByLayer
  9
$CECOLOR
 62
   256
  9
$CELTSCALE
 40
1.0
  9
$DISPSILH
 70
     0
  9
$DIMSCALE
 40
1.0
  9
$DIMASZ
 40
3.5
  9
$DIMEXO
 40
1.0
  9
$DIMDLI
 40
3.75
  9
$DIMRND
 40
0.0
  9
$DIMDLE
 40
0.0
  9
$DIMEXE
 40
1.0
  9
$DIMTP
 40
0.0
  9
$DIMTM
 40
0.0
  9
$DIMTXT
 40
3.5
  9
$DIMCEN
 40
2.5
  9
$DIMTSZ
 40
0.0
  9
$DIMTOL
 70
     0
  9
$DIMLIM
 70
     0
  9
$DIMTIH
 70
     1
  9
$DIMTOH
 70
     1
  9
$DIMSE1
 70
     0
  9
$DIMSE2
 70
     0
  9
$DIMTAD
 70
     1
  9
$DIMZIN
 70
     0
  9
$DIMBLK
  1

  9
$DIMASO
 70
     1
  9
$DIMSHO
 70
     1
  9
$DIMPOST
  1

  9
$DIMAPOST
  1

  9
$DIMALT
 70
     0
  9
$DIMALTD
 70
     3
  9
$DIMALTF
 40
0.0393700787
  9
$DIMLFAC
 40
1.0
  9
$DIMTOFL
 70
     1
  9
$DIMTVP
 40
0.0
  9
$DIMTIX
 70
     0
  9
$DIMSOXD
 70
     0
  9
$DIMSAH
 70
     0
  9
$DIMBLK1
  1

  9
$DIMBLK2
  1

  9
$DIMSTYLE
  2
ISO-25
  9
$DIMCLRD
 70
     0
  9
$DIMCLRE
 70
     0
  9
$DIMCLRT
 70
     0
  9
$DIMTFAC
 40
1.0
  9
$DIMGAP
 40
1.524
  9
$DIMJUST
 70
     0
  9
$DIMSD1
 70
     0
  9
$DIMSD2
 70
     0
  9
$DIMTOLJ
 70
     0
  9
$DIMTZIN
 70
     0
  9
$DIMALTZ
 70
     0
  9
$DIMALTTZ
 70
     0
  9
$DIMUPT
 70
     0
  9
$DIMDEC
 70
     2
  9
$DIMTDEC
 70
     2
  9
$DIMALTU
 70
     2
  9
$DIMALTTD
 70
     3
  9
$DIMTXSTY
  7
Standard
  9
$DIMAUNIT
 70
     0
  9
$DIMADEC
 70
     2
  9
$DIMALTRND
 40
0.0
  9
$DIMAZIN
 70
     0
  9
$DIMDSEP
 70
    44
  9
$DIMATFIT
 70
     3
  9
$DIMFRAC
 70
     0
  9
$DIMLDRBLK
  1

  9
$DIMLUNIT
 70
     2
  9
$DIMLWD
 70
    -2
  9
$DIMLWE
 70
    -2
  9
$DIMTMOVE
 70
     0
  9
$LUNITS
 70
     2
  9
$LUPREC
 70
     2
  9
$SKETCHINC
 40
1.0
  9
$FILLETRAD
 40
10.0
  9
$AUNITS
 70
     0
  9
$AUPREC
 70
     2
  9
$MENU
  1
.
  9
$ELEVATION
 40
0.0
  9
$PELEVATION
 40
0.0
  9
$THICKNESS
 40
0.0
  9
$LIMCHECK
 70
     0
  9
$CHAMFERA
 40
0.0
  9
$CHAMFERB
 40
0.0
  9
$CHAMFERC
 40
0.0
  9
$CHAMFERD
 40
0.0
  9
$SKPOLY
 70
     0
  9
$TDCREATE
 40
2459741.614642234
  9
$TDUCREATE
 40
2459741.489642234
  9
$TDUPDATE
 40
2459741.614642419
  9
$TDUUPDATE
 40
2459741.489642419
  9
$TDINDWG
 40
0.0000000116
  9
$TDUSRTIMER
 40
0.0000000116
  9
$USRTIMER
 70
     1
  9
$ANGBASE
 50
0.0
  9
$ANGDIR
 70
     0
  9
$PDMODE
 70
     0
  9
$PDSIZE
 40
-1.0
  9
$PLINEWID
 40
0.0
  9
$SPLFRAME
 70
     0
  9
$SPLINETYPE
 70
     6
  9
$SPLINESEGS
 70
     8
  9
$HANDSEED
  5
141
  9
$SURFTAB1
 70
     6
  9
$SURFTAB2
 70
     6
  9
$SURFTYPE
 70
     6
  9
$SURFU
 70
     6
  9
$SURFV
 70
     6
  9
$UCSBASE
  2

  9
$UCSNAME
  2

  9
$UCSORG
 10
0.0
 20
0.0
 30
0.0
  9
$UCSXDIR
 10
1.0
 20
0.0
 30
0.0
  9
$UCSYDIR
 10
0.0
 20
1.0
 30
0.0
  9
$UCSORTHOREF
  2

  9
$UCSORTHOVIEW
 70
     0
  9
$UCSORGTOP
 10
0.0
 20
0.0
 30
0.0
  9
$UCSORGBOTTOM
 10
0.0
 20
0.0
 30
0.0
  9
$UCSORGLEFT
 10
0.0
 20
0.0
 30
0.0
  9
$UCSORGRIGHT
 10
0.0
 20
0.0
 30
0.0
  9
$UCSORGFRONT
 10
0.0
 20
0.0
 30
0.0
  9
$UCSORGBACK
 10
0.0
 20
0.0
 30
0.0
  9
$PUCSBASE
  2

  9
$PUCSNAME
  2

  9
$PUCSORG
 10
0.0
 20
0.0
 30
0.0
  9
$PUCSXDIR
 10
1.0
 20
0.0
 30
0.0
  9
$PUCSYDIR
 10
0.0
 20
1.0
 30
0.0
  9
$PUCSORTHOREF
  2

  9
$PUCSORTHOVIEW
 70
     0
  9
$PUCSORGTOP
 10
0.0
 20
0.0
 30
0.0
  9
$PUCSORGBOTTOM
 10
0.0
 20
0.0
 30
0.0
  9
$PUCSORGLEFT
 10
0.0
 20
0.0
 30
0.0
  9
$PUCSORGRIGHT
 10
0.0
 20
0.0
 30
0.0
  9
$PUCSORGFRONT
 10
0.0
 20
0.0
 30
0.0
  9
$PUCSORGBACK
 10
0.0
 20
0.0
 30
0.0
  9
$USERI1
 70
     0
  9
$USERI2
 70
     0
  9
$USERI3
 70
     0
  9
$USERI4
 70
     0
  9
$USERI5
 70
     0
  9
$USERR1
 40
0.0
  9
$USERR2
 40
0.0
  9
$USERR3
 40
0.0
  9
$USERR4
 40
0.0
  9
$USERR5
 40
0.0
  9
$WORLDVIEW
 70
     1
  9
$SHADEDGE
 70
     3
  9
$SHADEDIF
 70
    70
  9
$TILEMODE
 70
     1
  9
$MAXACTVP
 70
    64
  9
$PINSBASE
 10
0.0
 20
0.0
 30
0.0
  9
$PLIMCHECK
 70
     0
  9
$PEXTMIN
 10
1.0000000000E+20
 20
1.0000000000E+20
 30
1.0000000000E+20
  9
$PEXTMAX
 10
-1.0000000000E+20
 20
-1.0000000000E+20
 30
-1.0000000000E+20
  9
$PLIMMIN
 10
0.0
 20
0.0
  9
$PLIMMAX
 10
420.0
 20
297.0
  9
$UNITMODE
 70
     0
  9
$VISRETAIN
 70
     1
  9
$PLINEGEN
 70
     0
  9
$PSLTSCALE
 70
     1
  9
$TREEDEPTH
 70
  3020
  9
$CMLSTYLE
  2
Standard
  9
$CMLJUST
 70
     0
  9
$CMLSCALE
 40
20.0
  9
$PROXYGRAPHICS
 70
     1
  9
$MEASUREMENT
 70
     1
  9
$CELWEIGHT
370
    -1
  9
$ENDCAPS
280
     0
  9
$JOINSTYLE
280
     0
  9
$LWDISPLAY
290
     1
  9
$INSUNITS
 70
     4
  9
$HYPERLINKBASE
  1

  9
$STYLESHEET
  1

  9
$XEDIT
290
     1
  9
$CEPSNTYPE
380
     0
  9
$PSTYLEMODE
290
     1
  9
$FINGERPRINTGUID
  2
{dcb03457-acf7-41a2-9839-132b453c6241}
  9
$VERSIONGUID
  2
{FAEB1C32-E019-11D5-929B-00C0DF256EC4}
  9
$EXTNAMES
290
     1
  9
$PSVPSCALE
 40
0.0
  9
$OLESTARTUP
290
     0
  0
ENDSEC
  0
SECTION
  2
CLASSES
  0
CLASS
  1
ACDBDICTIONARYWDFLT
  2
AcDbDictionaryWithDefault
  3
ObjectDBX Classes
 90
        0
280
     0
281
     0
  0
CLASS
  1
VISUALSTYLE
  2
AcDbVisualStyle
  3
ObjectDBX Classes
 90
     4095
280
     0
281
     0
  0
CLASS
  1
MATERIAL
  2
AcDbMaterial
  3
ObjectDBX Classes
 90
     1153
280
     0
281
     0
  0
CLASS
  1
SCALE
  2
AcDbScale
  3
ObjectDBX Classes
 90
     1153
280
     0
281
     0
  0
CLASS
  1
TABLESTYLE
  2
AcDbTableStyle
  3
ObjectDBX Classes
 90
     4095
280
     0
281
     0
  0
CLASS
  1
MLEADERSTYLE
  2
AcDbMLeaderStyle
  3
ACDB_MLEADERSTYLE_CLASS
 90
     4095
280
     0
281
     0
  0
CLASS
  1
SUN
  2
AcDbSun
  3
SCENEOE
 90
     1153
280
     0
281
     0
  0
CLASS
  1
ACDBPLACEHOLDER
  2
AcDbPlaceHolder
  3
ObjectDBX Classes
 90
        0
280
     0
281
     0
  0
CLASS
  1
LAYOUT
  2
AcDbLayout
  3
ObjectDBX Classes
 90
        0
280
     0
281
     0
  0
ENDSEC
  0
SECTION
  2
TABLES
  0
TABLE
  2
VPORT
  5
8
330
0
100
AcDbSymbolTable
 70
     1
  0
VPORT
  5
29
330
8
100
AcDbSymbolTableRecord
100
AcDbViewportTableRecord
  2
*Active
 70
     0
 10
0.0
 20
0.0
 11
1.0
 21
1.0
 12
139.7
 22
107.95
 13
0.0
 23
0.0
 14
10.0
 24
10.0
 15
10.0
 25
10.0
 16
0.0
 26
0.0
 36
1.0
 17
0.0
 27
0.0
 37
0.0
 40
215.9
 41
1.2941176471
 42
50.0
 43
0.0
 44
0.0
 50
0.0
 51
0.0
 71
     0
 72
  2000
 73
     1
 74
     3
 75
     0
 76
     0
 77
     0
 78
     0
281
     0
 65
     1
110
0.0
120
0.0
130
0.0
111
1.0
121
0.0
131
0.0
112
0.0
122
1.0
132
0.0
 79
     0
146
0.0
  0
ENDTAB
  0
TABLE
  2
LTYPE
  5
5
330
0
100
AcDbSymbolTable
 70
     6
  0
LTYPE
  5
14
330
5
100
AcDbSymbolTableRecord
100
AcDbLinetypeTableRecord
  2
ByBlock
 70
     0
  3

 72
    65
 73
     0
 40
0.0
  0
LTYPE
  5
15
330
5
100
AcDbSymbolTableRecord
100
AcDbLinetypeTableRecord
  2
ByLayer
 70
     0
  3

 72
    65
 73
     0
 40
0.0
  0
LTYPE
  5
16
330
5
100
AcDbSymbolTableRecord
100
AcDbLinetypeTableRecord
  2
Continuous
 70
     0
  3
Solid line
 72
    65
 73
     0
 40
0.0
  0
LTYPE
  5
6E
330
5
100
AcDbSymbolTableRecord
100
AcDbLinetypeTableRecord
  2
HIDDEN
 70
     0
  3
Hidden __ __ __ __ __ __ __ __ __ __ __ __ __ __
 72
    65
 73
     2
 40
1.905
 49
1.27
 74
     0
 49
-0.635
 74
     0
  0
LTYPE
  5
6F
330
5
100
AcDbSymbolTableRecord
100
AcDbLinetypeTableRecord
  2
PHANTOM
 70
     0
  3
Phantom ______  __  __  ______  __  __  ______
 72
    65
 73
     6
 40
12.7
 49
6.35
 74
     0
 49
-1.27
 74
     0
 49
1.27
 74
     0
 49
-1.27
 74
     0
 49
1.27
 74
     0
 49
-1.27
 74
     0
  0
LTYPE
  5
70
330
5
100
AcDbSymbolTableRecord
100
AcDbLinetypeTableRecord
  2
CENTER
 70
     0
  3
Center ____ _ ____ _ ____ _ ____ _ ____ _ ____
 72
    65
 73
     4
 40
10.16
 49
6.35
 74
     0
 49
-1.27
 74
     0
 49
1.27
 74
     0
 49
-1.27
 74
     0
  0
LTYPE
  5
71
330
5
100
AcDbSymbolTableRecord
100
AcDbLinetypeTableRecord
  2
CENTERX2
 70
     0
  3
Center (2x) ________  __  ________  __  _____
 72
    65
 73
     4
 40
20.32
 49
12.7
 74
     0
 49
-2.54
 74
     0
 49
2.54
 74
     0
 49
-2.54
 74
     0
  0
LTYPE
  5
72
330
5
100
AcDbSymbolTableRecord
100
AcDbLinetypeTableRecord
  2
DOT2
 70
     0
  3
Dot (.5x) ........................................
 72
    65
 73
     2
 40
0.635
 49
0.0
 74
     0
 49
-0.635
 74
     0
  0
ENDTAB
  0
TABLE
  2
LAYER
  5
2
330
0
100
AcDbSymbolTable
 70
    17
  0
LAYER
  5
10
330
2
100
AcDbSymbolTableRecord
100
AcDbLayerTableRecord
  2
0
 70
     0
 62
     7
  6
Continuous
370
    -3
390
F
  0
LAYER
  5
73
330
2
100
AcDbSymbolTableRecord
100
AcDbLayerTableRecord
  2
FORMAT
 70
     0
 62
     7
  6
Continuous
370
    -3
390
F
  0
LAYER
  5
74
330
2
100
AcDbSymbolTableRecord
100
AcDbLayerTableRecord
  2
YARDIMCI_GEOMETRI
 70
     0
 62
    -6
  6
Continuous
290
     0
370
    -3
390
F
  0
LAYER
  5
75
330
2
100
AcDbSymbolTableRecord
100
AcDbLayerTableRecord
  2
SAYFA_CERCEVESI
 70
     0
 62
     7
  6
Continuous
370
    25
390
F
  0
LAYER
  5
76
330
2
100
AcDbSymbolTableRecord
100
AcDbLayerTableRecord
  2
ANTET
 70
     0
 62
     7
  6
Continuous
370
    -3
390
F
  0
LAYER
  5
77
330
2
100
AcDbSymbolTableRecord
100
AcDbLayerTableRecord
  2
OLCU
 70
     0
 62
   150
  6
Continuous
370
    -3
390
F
  0
LAYER
  5
78
330
2
100
AcDbSymbolTableRecord
100
AcDbLayerTableRecord
  2
METIN
 70
     0
 62
    96
  6
Continuous
370
    -3
390
F
  0
LAYER
  5
79
330
2
100
AcDbSymbolTableRecord
100
AcDbLayerTableRecord
  2
BALON
 70
     0
 62
     5
  6
Continuous
370
    -3
390
F
  0
LAYER
  5
7A
330
2
100
AcDbSymbolTableRecord
100
AcDbLayerTableRecord
  2
VURGU
 70
     0
 62
     7
  6
Continuous
370
    -3
390
F
  0
LAYER
  5
7B
330
2
100
AcDbSymbolTableRecord
100
AcDbLayerTableRecord
  2
SILIK
 70
     0
 62
     7
  6
Continuous
370
    -3
390
F
  0
LAYER
  5
7C
330
2
100
AcDbSymbolTableRecord
100
AcDbLayerTableRecord
  2
MODEL
 70
     0
 62
     7
  6
Continuous
370
    -3
390
F
  0
LAYER
  5
7D
330
2
100
AcDbSymbolTableRecord
100
AcDbLayerTableRecord
  2
DETAYLANDıRMA
 70
     0
 62
   190
  6
Continuous
370
    -3
390
F
  0
LAYER
  5
7E
330
2
100
AcDbSymbolTableRecord
100
AcDbLayerTableRecord
  2
TOLERANS
 70
     0
 62
   230
  6
Continuous
370
    -3
390
F
  0
LAYER
  5
7F
330
2
100
AcDbSymbolTableRecord
100
AcDbLayerTableRecord
  2
MERKEZ_CIZGILERI
 70
     0
 62
    30
  6
Continuous
370
    -3
390
F
  0
LAYER
  5
80
330
2
100
AcDbSymbolTableRecord
100
AcDbLayerTableRecord
  2
KESIT-DETAY_CIZGILERI
 70
     0
 62
     7
  6
Continuous
370
    -3
390
F
  0
LAYER
  5
81
330
2
100
AcDbSymbolTableRecord
100
AcDbLayerTableRecord
  2
\U+041E\U+0421\U+0415\U+0412\U+042B\U+0415
 70
     0
 62
     7
  6
Continuous
370
    -3
390
F
  0
LAYER
  5
82
330
2
100
AcDbSymbolTableRecord
100
AcDbLayerTableRecord
  2
\U+0412\U+041E\U+0414\U+042F\U+041D\U+042B\U+0415_\U+0417\U+041D\U+0410\U+041A\U+0418
 70
     0
 62
    11
  6
Continuous
370
    -3
390
F
  0
ENDTAB
  0
TABLE
  2
STYLE
  5
3
330
0
100
AcDbSymbolTable
 70
     1
  0
STYLE
  5
11
330
3
100
AcDbSymbolTableRecord
100
AcDbTextStyleTableRecord
  2
Standard
 70
     0
 40
0.0
 41
1.0
 50
0.0
 71
     0
 42
3.5
  3
txt
  4

  0
ENDTAB
  0
TABLE
  2
VIEW
  5
6
330
0
100
AcDbSymbolTable
 70
     0
  0
ENDTAB
  0
TABLE
  2
UCS
  5
7
330
0
100
AcDbSymbolTable
 70
     0
  0
ENDTAB
  0
TABLE
  2
APPID
  5
9
330
0
100
AcDbSymbolTable
 70
     1
  0
APPID
  5
12
330
9
100
AcDbSymbolTableRecord
100
AcDbRegAppTableRecord
  2
ACAD
 70
     0
  0
ENDTAB
  0
TABLE
  2
DIMSTYLE
  5
A
330
0
100
AcDbSymbolTable
 70
     1
100
AcDbDimStyleTable
  0
DIMSTYLE
105
27
330
A
100
AcDbSymbolTableRecord
100
AcDbDimStyleTableRecord
  2
ISO-25
 70
     0
 41
2.5
 42
0.625
 43
3.75
 44
1.25
 73
     0
 74
     0
 77
     1
 78
     8
140
2.5
141
2.5
143
0.0393700787
147
0.625
171
     3
172
     1
178
     0
271
     2
272
     2
274
     3
278
    44
283
     0
284
     8
340
11
  0
ENDTAB
  0
TABLE
  2
BLOCK_RECORD
  5
1
330
0
100
AcDbSymbolTable
 70
     5
  0
BLOCK_RECORD
  5
1F
330
1
100
AcDbSymbolTableRecord
100
AcDbBlockTableRecord
  2
*Model_Space
340
22
  0
BLOCK_RECORD
  5
1B
330
1
100
AcDbSymbolTableRecord
100
AcDbBlockTableRecord
  2
*Paper_Space
340
1E
  0
BLOCK_RECORD
  5
23
330
1
100
AcDbSymbolTableRecord
100
AcDbBlockTableRecord
  2
*Paper_Space0
340
26
  0
BLOCK_RECORD
  5
C9
330
1
100
AcDbSymbolTableRecord
100
AcDbBlockTableRecord
  2
SW_CENTERMARKSYMBOL_0
340
0
102
{BLKREFS
331
D4
102
}
  0
BLOCK_RECORD
  5
F4
330
1
100
AcDbSymbolTableRecord
100
AcDbBlockTableRecord
  2
SW_CENTERMARKSYMBOL_1
340
0
102
{BLKREFS
331
FF
102
}
  0
BLOCK_RECORD
  5
100
330
1
100
AcDbSymbolTableRecord
100
AcDbBlockTableRecord
  2
SW_CENTERMARKSYMBOL_2
340
0
102
{BLKREFS
331
10B
102
}
  0
BLOCK_RECORD
  5
10C
330
1
100
AcDbSymbolTableRecord
100
AcDbBlockTableRecord
  2
SW_CENTERMARKSYMBOL_3
340
0
102
{BLKREFS
331
117
102
}
  0
ENDTAB
  0
ENDSEC
  0
SECTION
  2
BLOCKS
  0
BLOCK
  5
20
330
1F
100
AcDbEntity
  8
0
100
AcDbBlockBegin
  2
*Model_Space
 70
     0
 10
0.0
 20
0.0
 30
0.0
  3
*Model_Space
  1

  0
ENDBLK
  5
21
330
1F
100
AcDbEntity
  8
0
100
AcDbBlockEnd
  0
BLOCK
  5
1C
330
1B
100
AcDbEntity
 67
     1
  8
0
100
AcDbBlockBegin
  2
*Paper_Space
 70
     0
 10
0.0
 20
0.0
 30
0.0
  3
*Paper_Space
  1

  0
ENDBLK
  5
1D
330
1B
100
AcDbEntity
 67
     1
  8
0
100
AcDbBlockEnd
  0
BLOCK
  5
24
330
23
100
AcDbEntity
  8
0
100
AcDbBlockBegin
  2
*Paper_Space0
 70
     0
 10
0.0
 20
0.0
 30
0.0
  3
*Paper_Space0
  1

  0
ENDBLK
  5
25
330
23
100
AcDbEntity
  8
0
100
AcDbBlockEnd
  0
BLOCK
  5
CA
330
C9
100
AcDbEntity
  8
0
100
AcDbBlockBegin
  2
SW_CENTERMARKSYMBOL_0
 70
     0
 10
0.0
 20
0.0
 30
0.0
  3
SW_CENTERMARKSYMBOL_0
  1

  0
LINE
  5
CC
330
C9
100
AcDbEntity
  8
FORMAT
 62
     0
100
AcDbLine
 10
0.0
 20
0.0
 30
0.0
 11
0.0
 21
2.5
 31
0.0
  0
LINE
  5
CD
330
C9
100
AcDbEntity
  8
FORMAT
 62
     0
100
AcDbLine
 10
0.0
 20
0.0
 30
0.0
 11
-2.5
 21
0.0
 31
0.0
  0
LINE
  5
CE
330
C9
100
AcDbEntity
  8
FORMAT
 62
     0
100
AcDbLine
 10
0.0
 20
0.0
 30
0.0
 11
0.0
 21
-2.5
 31
0.0
  0
LINE
  5
CF
330
C9
100
AcDbEntity
  8
FORMAT
 62
     0
100
AcDbLine
 10
0.0
 20
0.0
 30
0.0
 11
2.5
 21
0.0
 31
0.0
  0
LINE
  5
D0
330
C9
100
AcDbEntity
  8
FORMAT
 62
     0
100
AcDbLine
 10
0.0
 20
5.0
 30
0.0
 11
0.0
 21
15.5
 31
0.0
  0
LINE
  5
D1
330
C9
100
AcDbEntity
  8
FORMAT
 62
     0
100
AcDbLine
 10
-5.0
 20
0.0
 30
0.0
 11
-15.5
 21
0.0
 31
0.0
  0
LINE
  5
D2
330
C9
100
AcDbEntity
  8
FORMAT
 62
     0
100
AcDbLine
 10
0.0
 20
-5.0
 30
0.0
 11
0.0
 21
-15.5
 31
0.0
  0
LINE
  5
D3
330
C9
100
AcDbEntity
  8
FORMAT
 62
     0
100
AcDbLine
 10
5.0
 20
0.0
 30
0.0
 11
15.5
 21
0.0
 31
0.0
  0
ENDBLK
  5
CB
330
C9
100
AcDbEntity
  8
0
100
AcDbBlockEnd
  0
BLOCK
  5
F5
330
F4
100
AcDbEntity
  8
0
100
AcDbBlockBegin
  2
SW_CENTERMARKSYMBOL_1
 70
     0
 10
0.0
 20
0.0
 30
0.0
  3
SW_CENTERMARKSYMBOL_1
  1

  0
LINE
  5
F7
330
F4
100
AcDbEntity
  8
FORMAT
 62
     0
100
AcDbLine
 10
0.0
 20
0.0
 30
0.0
 11
0.0
 21
2.5
 31
0.0
  0
LINE
  5
F8
330
F4
100
AcDbEntity
  8
FORMAT
 62
     0
100
AcDbLine
 10
0.0
 20
0.0
 30
0.0
 11
-2.5
 21
0.0
 31
0.0
  0
LINE
  5
F9
330
F4
100
AcDbEntity
  8
FORMAT
 62
     0
100
AcDbLine
 10
0.0
 20
0.0
 30
0.0
 11
0.0
 21
-2.5
 31
0.0
  0
LINE
  5
FA
330
F4
100
AcDbEntity
  8
FORMAT
 62
     0
100
AcDbLine
 10
0.0
 20
0.0
 30
0.0
 11
2.5
 21
0.0
 31
0.0
  0
LINE
  5
FB
330
F4
100
AcDbEntity
  8
FORMAT
 62
     0
100
AcDbLine
 10
0.0
 20
5.0
 30
0.0
 11
0.0
 21
18.5
 31
0.0
  0
LINE
  5
FC
330
F4
100
AcDbEntity
  8
FORMAT
 62
     0
100
AcDbLine
 10
-5.0
 20
0.0
 30
0.0
 11
-18.5
 21
0.0
 31
0.0
  0
LINE
  5
FD
330
F4
100
AcDbEntity
  8
FORMAT
 62
     0
100
AcDbLine
 10
0.0
 20
-5.0
 30
0.0
 11
0.0
 21
-18.5
 31
0.0
  0
LINE
  5
FE
330
F4
100
AcDbEntity
  8
FORMAT
 62
     0
100
AcDbLine
 10
5.0
 20
0.0
 30
0.0
 11
18.5
 21
0.0
 31
0.0
  0
ENDBLK
  5
F6
330
F4
100
AcDbEntity
  8
0
100
AcDbBlockEnd
  0
BLOCK
  5
101
330
100
100
AcDbEntity
  8
0
100
AcDbBlockBegin
  2
SW_CENTERMARKSYMBOL_2
 70
     0
 10
0.0
 20
0.0
 30
0.0
  3
SW_CENTERMARKSYMBOL_2
  1

  0
LINE
  5
103
330
100
100
AcDbEntity
  8
FORMAT
 62
     0
100
AcDbLine
 10
0.0
 20
0.0
 30
0.0
 11
0.0
 21
2.5
 31
0.0
  0
LINE
  5
104
330
100
100
AcDbEntity
  8
FORMAT
 62
     0
100
AcDbLine
 10
0.0
 20
0.0
 30
0.0
 11
-2.5
 21
0.0
 31
0.0
  0
LINE
  5
105
330
100
100
AcDbEntity
  8
FORMAT
 62
     0
100
AcDbLine
 10
0.0
 20
0.0
 30
0.0
 11
0.0
 21
-2.5
 31
0.0
  0
LINE
  5
106
330
100
100
AcDbEntity
  8
FORMAT
 62
     0
100
AcDbLine
 10
0.0
 20
0.0
 30
0.0
 11
2.5
 21
0.0
 31
0.0
  0
LINE
  5
107
330
100
100
AcDbEntity
  8
FORMAT
 62
     0
100
AcDbLine
 10
0.0
 20
5.0
 30
0.0
 11
0.0
 21
9.5
 31
0.0
  0
LINE
  5
108
330
100
100
AcDbEntity
  8
FORMAT
 62
     0
100
AcDbLine
 10
-5.0
 20
0.0
 30
0.0
 11
-9.5
 21
0.0
 31
0.0
  0
LINE
  5
109
330
100
100
AcDbEntity
  8
FORMAT
 62
     0
100
AcDbLine
 10
0.0
 20
-5.0
 30
0.0
 11
0.0
 21
-9.5
 31
0.0
  0
LINE
  5
10A
330
100
100
AcDbEntity
  8
FORMAT
 62
     0
100
AcDbLine
 10
5.0
 20
0.0
 30
0.0
 11
9.5
 21
0.0
 31
0.0
  0
ENDBLK
  5
102
330
100
100
AcDbEntity
  8
0
100
AcDbBlockEnd
  0
BLOCK
  5
10D
330
10C
100
AcDbEntity
  8
0
100
AcDbBlockBegin
  2
SW_CENTERMARKSYMBOL_3
 70
     0
 10
0.0
 20
0.0
 30
0.0
  3
SW_CENTERMARKSYMBOL_3
  1

  0
LINE
  5
10F
330
10C
100
AcDbEntity
  8
FORMAT
 62
     0
100
AcDbLine
 10
0.0
 20
0.0
 30
0.0
 11
0.0
 21
2.5
 31
0.0
  0
LINE
  5
110
330
10C
100
AcDbEntity
  8
FORMAT
 62
     0
100
AcDbLine
 10
0.0
 20
0.0
 30
0.0
 11
-2.5
 21
0.0
 31
0.0
  0
LINE
  5
111
330
10C
100
AcDbEntity
  8
FORMAT
 62
     0
100
AcDbLine
 10
0.0
 20
0.0
 30
0.0
 11
0.0
 21
-2.5
 31
0.0
  0
LINE
  5
112
330
10C
100
AcDbEntity
  8
FORMAT
 62
     0
100
AcDbLine
 10
0.0
 20
0.0
 30
0.0
 11
2.5
 21
0.0
 31
0.0
  0
LINE
  5
113
330
10C
100
AcDbEntity
  8
FORMAT
 62
     0
100
AcDbLine
 10
0.0
 20
5.0
 30
0.0
 11
0.0
 21
9.5
 31
0.0
  0
LINE
  5
114
330
10C
100
AcDbEntity
  8
FORMAT
 62
     0
100
AcDbLine
 10
-5.0
 20
0.0
 30
0.0
 11
-9.5
 21
0.0
 31
0.0
  0
LINE
  5
115
330
10C
100
AcDbEntity
  8
FORMAT
 62
     0
100
AcDbLine
 10
0.0
 20
-5.0
 30
0.0
 11
0.0
 21
-9.5
 31
0.0
  0
LINE
  5
116
330
10C
100
AcDbEntity
  8
FORMAT
 62
     0
100
AcDbLine
 10
5.0
 20
0.0
 30
0.0
 11
9.5
 21
0.0
 31
0.0
  0
ENDBLK
  5
10E
330
10C
100
AcDbEntity
  8
0
100
AcDbBlockEnd
  0
ENDSEC
  0
SECTION
  2
ENTITIES
  0
LINE
  5
83
330
1F
100
AcDbEntity
  8
0
  6
Continuous
 62
     7
370
    25
100
AcDbLine
 10
168.505399775
 20
-72.9506
 30
0.0
 11
218.505399775
 21
-72.9506
 31
0.0
  0
LINE
  5
84
330
1F
100
AcDbEntity
  8
0
  6
Continuous
 62
     7
370
    25
100
AcDbLine
 10
58.505399775
 20
-72.9506
 30
0.0
 11
108.505399775
 21
-72.9506
 31
0.0
  0
LINE
  5
85
330
1F
100
AcDbEntity
  8
0
  6
Continuous
 62
     7
370
    25
100
AcDbLine
 10
61.5949470868
 20
221.0494
 30
0.0
 11
58.505399775
 21
221.0494
 31
0.0
  0
LINE
  5
86
330
1F
100
AcDbEntity
  8
0
  6
Continuous
 62
     7
370
    25
100
AcDbLine
 10
122.5576468847
 20
221.0494
 30
0.0
 11
75.4949851437
 21
221.0494
 31
0.0
  0
LINE
  5
87
330
1F
100
AcDbEntity
  8
0
  6
Continuous
 62
     7
370
    25
100
AcDbLine
 10
201.5949470868
 20
221.0494
 30
0.0
 11
154.5034348183
 21
221.0494
 31
0.0
  0
LINE
  5
88
330
1F
100
AcDbEntity
  8
0
  6
Continuous
 62
     7
370
    25
100
AcDbLine
 10
218.505399775
 20
221.0494
 30
0.0
 11
215.4949851437
 21
221.0494
 31
0.0
  0
LINE
  5
89
330
1F
100
AcDbEntity
  8
0
  6
Continuous
 62
     7
370
    25
100
AcDbLine
 10
122.505399775
 20
269.0494
 30
0.0
 11
122.505399775
 21
221.0437310343
 31
0.0
  0
LINE
  5
8A
330
1F
100
AcDbEntity
  8
0
  6
Continuous
 62
     7
370
    25
100
AcDbLine
 10
154.505399775
 20
221.0491891169
 30
0.0
 11
154.505399775
 21
269.0494
 31
0.0
  0
LINE
  5
8B
330
1F
100
AcDbEntity
  8
0
  6
Continuous
 62
     7
370
    25
100
AcDbLine
 10
61.505399775
 20
236.0494
 30
0.0
 11
61.505399775
 21
221.0451868008
 31
0.0
  0
LINE
  5
8C
330
1F
100
AcDbEntity
  8
0
  6
Continuous
 62
     7
370
    25
100
AcDbLine
 10
75.505399775
 20
221.0489291206
 30
0.0
 11
75.505399775
 21
236.0494
 31
0.0
  0
LINE
  5
8D
330
1F
100
AcDbEntity
  8
0
  6
Continuous
 62
     7
370
    25
100
AcDbLine
 10
201.505399775
 20
236.0494
 30
0.0
 11
201.505399775
 21
221.0451868008
 31
0.0
  0
LINE
  5
8E
330
1F
100
AcDbEntity
  8
0
  6
Continuous
 62
     7
370
    25
100
AcDbLine
 10
215.505399775
 20
221.0489291206
 30
0.0
 11
215.505399775
 21
236.0494
 31
0.0
  0
LINE
  5
8F
330
1F
100
AcDbEntity
  8
0
  6
Continuous
 62
     7
370
    25
100
AcDbLine
 10
218.505399775
 20
76.0494
 30
0.0
 11
58.505399775
 21
76.0494
 31
0.0
  0
LINE
  5
90
330
1F
100
AcDbEntity
  8
0
  6
Continuous
 62
     7
370
    25
100
AcDbLine
 10
58.505399775
 20
83.0494
 30
0.0
 11
58.505399775
 21
76.0494
 31
0.0
  0
LINE
  5
91
330
1F
100
AcDbEntity
  8
0
  6
Continuous
 62
     7
370
    25
100
AcDbLine
 10
218.505399775
 20
83.0494
 30
0.0
 11
58.505399775
 21
83.0494
 31
0.0
  0
LINE
  5
92
330
1F
100
AcDbEntity
  8
0
  6
Continuous
 62
     7
370
    25
100
AcDbLine
 10
218.505399775
 20
83.0494
 30
0.0
 11
218.505399775
 21
76.0494
 31
0.0
  0
LINE
  5
93
330
1F
100
AcDbEntity
  8
0
  6
Continuous
 62
     7
370
    25
100
AcDbLine
 10
58.505399775
 20
72.0494
 30
0.0
 11
58.505399775
 21
65.0494
 31
0.0
  0
LINE
  5
94
330
1F
100
AcDbEntity
  8
0
  6
Continuous
 62
     7
370
    25
100
AcDbLine
 10
218.505399775
 20
72.0494
 30
0.0
 11
58.505399775
 21
72.0494
 31
0.0
  0
LINE
  5
95
330
1F
100
AcDbEntity
  8
0
  6
Continuous
 62
     7
370
    25
100
AcDbLine
 10
218.505399775
 20
72.0494
 30
0.0
 11
218.505399775
 21
65.0494
 31
0.0
  0
LINE
  5
96
330
1F
100
AcDbEntity
  8
0
  6
Continuous
 62
     7
370
    25
100
AcDbLine
 10
218.505399775
 20
65.0494
 30
0.0
 11
58.505399775
 21
65.0494
 31
0.0
  0
SPLINE
  5
97
330
1F
100
AcDbEntity
  8
0
  6
Continuous
 62
     7
370
    25
100
AcDbSpline
210
0.0
220
0.0
230
1.0
 70
     8
 71
     3
 72
    12
 73
     8
 74
     0
 42
0.00000001
 43
0.00000001
 40
0.0
 40
0.0
 40
0.0
 40
0.0
 40
0.2146720642558562
 40
0.4293382299210152
 40
0.6441574451141947
 40
0.8590765085376306
 40
1.0
 40
1.0
 40
1.0
 40
1.0
 10
68.50539977502821
 20
220.8826387438211
 30
0.0
 10
67.7191958394999
 20
220.8864094632544
 30
0.0
 10
66.14680957113877
 20
220.8939507985121
 30
0.0
 10
64.04609998659532
 20
220.9469425034404
 30
0.0
 10
62.47778128494051
 20
221.0043046897388
 30
0.0
 10
61.58802489409046
 20
221.0454207507229
 30
0.0
 10
61.59298338665227
 20
221.045244703161
 30
0.0
 10
61.59494708681854
 20
221.0451749834584
 30
0.0
  0
SPLINE
  5
98
330
1F
100
AcDbEntity
  8
0
  6
Continuous
 62
     7
370
    25
100
AcDbSpline
210
0.0
220
0.0
230
1.0
 70
     8
 71
     3
 72
    13
 73
     9
 74
     0
 42
0.00000001
 43
0.00000001
 40
0.0
 40
0.0
 40
0.0
 40
0.0
 40
0.0058183614310057
 40
0.2202639491412827
 40
0.434709887666706
 40
0.6493670437394435
 40
0.8641173752720068
 40
0.9999999999999999
 40
0.9999999999999999
 40
0.9999999999999999
 40
0.9999999999999999
 10
75.49498514370642
 20
221.0489169392851
 30
0.0
 10
75.49844851492267
 20
221.0490775453213
 30
0.0
 10
75.62956031168522
 20
221.0551575594633
 30
0.0
 10
75.1582258337059
 20
221.0326037414561
 30
0.0
 10
74.05380724722825
 20
220.9849432647016
 30
0.0
 10
72.23328114675262
 20
220.9254588337905
 30
0.0
 10
70.28427578786454
 20
220.8880824737565
 30
0.0
 10
69.00223554172395
 20
220.8841591644218
 30
0.0
 10
68.50539977502821
 20
220.8826387438211
 30
0.0
  0
SPLINE
  5
99
330
1F
100
AcDbEntity
  8
0
  6
Continuous
 62
     7
370
    25
100
AcDbSpline
210
0.0
220
0.0
230
1.0
 70
     8
 71
     3
 72
    17
 73
    13
 74
     0
 42
0.00000001
 43
0.00000001
 40
0.0
 40
0.0
 40
0.0
 40
0.0
 40
0.1054164393803786
 40
0.2139011514441035
 40
0.3193144116604294
 40
0.4277632171536478
 40
0.5335681261303473
 40
0.6424253345309576
 40
0.7484755357249139
 40
0.8576244991146171
 40
0.9632479062888847
 40
1.0
 40
1.0
 40
1.0
 40
1.0
 10
138.5053997750282
 20
220.1760573900873
 30
0.0
 10
137.6216220598997
 20
220.1807376810423
 30
0.0
 10
135.8283432127125
 20
220.1902344884685
 30
0.0
 10
133.2262232097175
 20
220.2645811305787
 30
0.0
 10
130.751219467338
 20
220.375134036413
 30
0.0
 10
128.5143734127743
 20
220.5122037810762
 30
0.0
 10
126.5375422709756
 20
220.661635134635
 30
0.0
 10
124.9141677049423
 20
220.804418532035
 30
0.0
 10
123.6533329218801
 20
220.927725674592
 30
0.0
 10
122.8566311354945
 20
221.0111816803939
 30
0.0
 10
122.4873753475885
 20
221.0513543581199
 30
0.0
 10
122.5432290830913
 20
221.0452917110203
 30
0.0
 10
122.5576468846691
 20
221.0437267298758
 30
0.0
  0
SPLINE
  5
9A
330
1F
100
AcDbEntity
  8
0
  6
Continuous
 62
     7
370
    25
100
AcDbSpline
210
0.0
220
0.0
230
1.0
 70
     8
 71
     3
 72
    17
 73
    13
 74
     0
 42
0.00000001
 43
0.00000001
 40
0.0
 40
0.0
 40
0.0
 40
0.0
 40
0.0009227113490762
 40
0.1062191388519204
 40
0.2145715611230039
 40
0.3198631459781994
 40
0.4281784510474889
 40
0.5339992613380778
 40
0.6428727204148298
 40
0.7489410223837746
 40
0.8581086128827363
 40
1.0
 40
1.0
 40
1.0
 40
1.0
 10
154.5034348182797
 20
221.0491876337865
 30
0.0
 10
154.504089404584
 20
221.0492583778989
 30
0.0
 10
154.5794429738383
 20
221.0574021800882
 30
0.0
 10
154.3174874678624
 20
221.0288666612433
 30
0.0
 10
153.6931637069831
 20
220.9623917789209
 30
0.0
 10
152.5782915095517
 20
220.8502561759012
 30
0.0
 10
151.0935768231357
 20
220.7140900523984
 30
0.0
 10
149.2325410667443
 20
220.5647441809188
 30
0.0
 10
147.0819515931064
 20
220.4213674772286
 30
0.0
 10
144.6635817605948
 20
220.2993101409914
 30
0.0
 10
141.8031290510636
 20
220.1993325513971
 30
0.0
 10
139.6961847272988
 20
220.1844618737576
 30
0.0
 10
138.5053997750282
 20
220.1760573900873
 30
0.0
  0
SPLINE
  5
9B
330
1F
100
AcDbEntity
  8
0
  6
Continuous
 62
     7
370
    25
100
AcDbSpline
210
0.0
220
0.0
230
1.0
 70
     8
 71
     3
 72
    12
 73
     8
 74
     0
 42
0.00000001
 43
0.00000001
 40
0.0
 40
0.0
 40
0.0
 40
0.0
 40
0.2146720642558562
 40
0.4293382299210152
 40
0.6441574451141947
 40
0.8590765085376306
 40
1.0
 40
1.0
 40
1.0
 40
1.0
 10
208.5053997750282
 20
220.8826387438211
 30
0.0
 10
207.7191958394999
 20
220.8864094632544
 30
0.0
 10
206.1468095711388
 20
220.8939507985121
 30
0.0
 10
204.0460999865954
 20
220.9469425034404
 30
0.0
 10
202.4777812849405
 20
221.0043046897388
 30
0.0
 10
201.5880248940905
 20
221.0454207507229
 30
0.0
 10
201.5929833866523
 20
221.045244703161
 30
0.0
 10
201.5949470868185
 20
221.0451749834584
 30
0.0
  0
SPLINE
  5
9C
330
1F
100
AcDbEntity
  8
0
  6
Continuous
 62
     7
370
    25
100
AcDbSpline
210
0.0
220
0.0
230
1.0
 70
     8
 71
     3
 72
    13
 73
     9
 74
     0
 42
0.00000001
 43
0.00000001
 40
0.0
 40
0.0
 40
0.0
 40
0.0
 40
0.0058183614310057
 40
0.2202639491412827
 40
0.434709887666706
 40
0.6493670437394435
 40
0.8641173752720068
 40
0.9999999999999999
 40
0.9999999999999999
 40
0.9999999999999999
 40
0.9999999999999999
 10
215.4949851437064
 20
221.0489169392851
 30
0.0
 10
215.4984485149227
 20
221.0490775453213
 30
0.0
 10
215.629560311685
 20
221.0551575594633
 30
0.0
 10
215.158225833706
 20
221.0326037414561
 30
0.0
 10
214.0538072472282
 20
220.9849432647016
 30
0.0
 10
212.2332811467527
 20
220.9254588337905
 30
0.0
 10
210.2842757878646
 20
220.8880824737565
 30
0.0
 10
209.002235541724
 20
220.8841591644218
 30
0.0
 10
208.5053997750282
 20
220.8826387438211
 30
0.0
  0
LINE
  5
9D
330
1F
100
AcDbEntity
  8
0
  6
Continuous
 62
     7
370
    25
100
AcDbLine
 10
108.505399775
 20
64.0494
 30
0.0
 11
168.505399775
 21
64.0494
 31
0.0
  0
LINE
  5
9E
330
1F
100
AcDbEntity
  8
0
  6
Continuous
 62
     7
370
    25
100
AcDbLine
 10
108.505399775
 20
-72.9506
 30
0.0
 11
108.505399775
 21
64.0494
 31
0.0
  0
LINE
  5
9F
330
1F
100
AcDbEntity
  8
0
  6
Continuous
 62
     7
370
    25
100
AcDbLine
 10
168.505399775
 20
-67.8800385152
 30
0.0
 11
108.505399775
 21
-67.8800385152
 31
0.0
  0
LINE
  5
A0
330
1F
100
AcDbEntity
  8
0
  6
Continuous
 62
     7
370
    25
100
AcDbLine
 10
168.505399775
 20
64.0494
 30
0.0
 11
168.505399775
 21
-72.9506
 31
0.0
  0
LINE
  5
A1
330
1F
100
AcDbEntity
  8
0
  6
Continuous
 62
     7
370
    25
100
AcDbLine
 10
58.505399775
 20
65.0494
 30
0.0
 11
58.505399775
 21
-72.9506
 31
0.0
  0
LINE
  5
A2
330
1F
100
AcDbEntity
  8
0
  6
Continuous
 62
     7
370
    25
100
AcDbLine
 10
58.505399775
 20
221.0494
 30
0.0
 11
58.505399775
 21
83.0494
 31
0.0
  0
LINE
  5
A3
330
1F
100
AcDbEntity
  8
0
  6
Continuous
 62
     7
370
    25
100
AcDbLine
 10
218.505399775
 20
65.0494
 30
0.0
 11
218.505399775
 21
-72.9506
 31
0.0
  0
LINE
  5
A4
330
1F
100
AcDbEntity
  8
0
  6
Continuous
 62
     7
370
    25
100
AcDbLine
 10
218.505399775
 20
221.0494
 30
0.0
 11
218.505399775
 21
83.0494
 31
0.0
  0
LINE
  5
A5
330
1F
100
AcDbEntity
  8
0
  6
Continuous
 62
     7
370
    25
100
AcDbLine
 10
108.505399775
 20
-60.6167260942
 30
0.0
 11
168.505399775
 21
-60.6167260942
 31
0.0
  0
LINE
  5
A6
330
1F
100
AcDbEntity
  8
0
  6
Continuous
 62
     7
370
    25
100
AcDbLine
 10
58.505399775
 20
76.0494
 30
0.0
 11
58.505399775
 21
72.0494
 31
0.0
  0
LINE
  5
A7
330
1F
100
AcDbEntity
  8
0
  6
Continuous
 62
     7
370
    25
100
AcDbLine
 10
218.505399775
 20
76.0494
 30
0.0
 11
218.505399775
 21
72.0494
 31
0.0
  0
LINE
  5
A8
330
1F
100
AcDbEntity
  8
0
  6
Continuous
 62
     7
370
    25
100
AcDbLine
 10
138.505399775
 20
269.0494
 30
0.0
 11
154.505399775
 21
269.0494
 31
0.0
  0
LINE
  5
A9
330
1F
100
AcDbEntity
  8
0
  6
Continuous
 62
     7
370
    25
100
AcDbLine
 10
122.505399775
 20
269.0494
 30
0.0
 11
138.505399775
 21
269.0494
 31
0.0
  0
LINE
  5
AA
330
1F
100
AcDbEntity
  8
0
  6
Continuous
 62
     7
370
    25
100
AcDbLine
 10
68.505399775
 20
236.0494
 30
0.0
 11
75.505399775
 21
236.0494
 31
0.0
  0
LINE
  5
AB
330
1F
100
AcDbEntity
  8
0
  6
Continuous
 62
     7
370
    25
100
AcDbLine
 10
61.505399775
 20
236.0494
 30
0.0
 11
68.505399775
 21
236.0494
 31
0.0
  0
LINE
  5
AC
330
1F
100
AcDbEntity
  8
0
  6
Continuous
 62
     7
370
    25
100
AcDbLine
 10
208.505399775
 20
236.0494
 30
0.0
 11
201.505399775
 21
236.0494
 31
0.0
  0
LINE
  5
AD
330
1F
100
AcDbEntity
  8
0
  6
Continuous
 62
     7
370
    25
100
AcDbLine
 10
215.505399775
 20
236.0494
 30
0.0
 11
208.505399775
 21
236.0494
 31
0.0
  0
LINE
  5
AE
330
1F
100
AcDbEntity
  8
0
  6
Continuous
 62
     7
370
    25
100
AcDbLine
 10
449.0703155495
 20
236.0494
 30
0.0
 11
449.0703155495
 21
220.8866754256
 31
0.0
  0
LINE
  5
AF
330
1F
100
AcDbEntity
  8
0
  6
Continuous
 62
     7
370
    25
100
AcDbLine
 10
463.0703155495
 20
220.8826387438
 30
0.0
 11
463.0703155495
 21
236.0494
 31
0.0
  0
LINE
  5
B0
330
1F
100
AcDbEntity
  8
0
  6
Continuous
 62
     7
370
    25
100
AcDbLine
 10
440.0703155495
 20
269.0494
 30
0.0
 11
440.0703155495
 21
220.1818250681
 31
0.0
  0
LINE
  5
B1
330
1F
100
AcDbEntity
  8
0
  6
Continuous
 62
     7
370
    25
100
AcDbLine
 10
472.0703155495
 20
220.1760573901
 30
0.0
 11
472.0703155495
 21
269.0494
 31
0.0
  0
LINE
  5
B2
330
1F
100
AcDbEntity
  8
0
  6
Continuous
 62
     7
370
    25
100
AcDbLine
 10
602.7945466772
 20
83.0494
 30
0.0
 11
617.7945466772
 21
83.0494
 31
0.0
  0
LINE
  5
B3
330
1F
100
AcDbEntity
  8
0
  6
Continuous
 62
     7
370
    25
100
AcDbLine
 10
617.7945466772
 20
83.0494
 30
0.0
 11
617.7945466772
 21
76.0494
 31
0.0
  0
LINE
  5
B4
330
1F
100
AcDbEntity
  8
0
  6
Continuous
 62
     7
370
    25
100
AcDbLine
 10
617.7945466772
 20
76.0494
 30
0.0
 11
596.0560291063
 21
76.0494
 31
0.0
  0
ARC
  5
B5
330
1F
100
AcDbEntity
  8
0
  6
Continuous
 62
     7
370
    25
100
AcDbCircle
 10
456.0703155495
 20
74.0494
 30
0.0
 40
140.0
100
AcDbArc
 50
0.818538979
 51
359.181461021
  0
LINE
  5
B6
330
1F
100
AcDbEntity
  8
0
  6
Continuous
 62
     7
370
    25
100
AcDbLine
 10
596.0560291063
 20
72.0494
 30
0.0
 11
617.7945466772
 21
72.0494
 31
0.0
  0
LINE
  5
B7
330
1F
100
AcDbEntity
  8
0
  6
Continuous
 62
     7
370
    25
100
AcDbLine
 10
617.7945466772
 20
72.0494
 30
0.0
 11
617.7945466772
 21
65.0494
 31
0.0
  0
LINE
  5
B8
330
1F
100
AcDbEntity
  8
0
  6
Continuous
 62
     7
370
    25
100
AcDbLine
 10
617.7945466772
 20
65.0494
 30
0.0
 11
602.7945466772
 21
65.0494
 31
0.0
  0
ARC
  5
B9
330
1F
100
AcDbEntity
  8
0
  6
Continuous
 62
     7
370
    25
100
AcDbCircle
 10
456.0703155495
 20
74.0494
 30
0.0
 40
147.0000000000001
100
AcDbArc
 50
3.5101001005
 51
356.4898998995
  0
LINE
  5
BA
330
1F
100
AcDbEntity
  8
0
  6
Continuous
 62
     7
370
    25
100
AcDbLine
 10
449.0703155495
 20
236.0494
 30
0.0
 11
463.0703155495
 21
236.0494
 31
0.0
  0
LINE
  5
BB
330
1F
100
AcDbEntity
  8
0
  6
Continuous
 62
     7
370
    25
100
AcDbLine
 10
440.0703155495
 20
269.0494
 30
0.0
 11
472.0703155495
 21
269.0494
 31
0.0
  0
LINE
  5
BC
330
1F
100
AcDbEntity
  8
0
  6
Continuous
 62
     7
370
    25
100
AcDbLine
 10
58.505399775
 20
353.0668040055
 30
0.0
 11
218.505399775
 21
353.0668040055
 31
0.0
  0
LINE
  5
BD
330
1F
100
AcDbEntity
  8
0
  6
Continuous
 62
     7
370
    25
100
AcDbLine
 10
218.505399775
 20
646.7910351332
 30
0.0
 11
58.505399775
 21
646.7910351332
 31
0.0
  0
LINE
  5
BE
330
1F
100
AcDbEntity
  8
0
  6
Continuous
 62
     7
370
    25
100
AcDbLine
 10
218.505399775
 20
646.7910351332
 30
0.0
 11
218.505399775
 21
353.0668040055
 31
0.0
  0
LINE
  5
BF
330
1F
100
AcDbEntity
  8
0
  6
Continuous
 62
     7
370
    25
100
AcDbLine
 10
58.505399775
 20
646.7910351332
 30
0.0
 11
58.505399775
 21
353.0668040055
 31
0.0
  0
LINE
  5
C0
330
1F
100
AcDbEntity
  8
0
  6
Continuous
 62
     7
370
    25
100
AcDbLine
 10
108.505399775
 20
646.7262735259
 30
0.0
 11
168.505399775
 21
646.7262735259
 31
0.0
  0
LINE
  5
C1
330
1F
100
AcDbEntity
  8
0
  6
Continuous
 62
     7
370
    25
100
AcDbLine
 10
108.505399775
 20
461.7910351332
 30
0.0
 11
108.505399775
 21
646.7262735259
 31
0.0
  0
LINE
  5
C2
330
1F
100
AcDbEntity
  8
0
  6
Continuous
 62
     7
370
    25
100
AcDbLine
 10
168.505399775
 20
461.7910351332
 30
0.0
 11
108.505399775
 21
461.7910351332
 31
0.0
  0
LINE
  5
C3
330
1F
100
AcDbEntity
  8
0
  6
Continuous
 62
     7
370
    25
100
AcDbLine
 10
168.505399775
 20
646.7262735259
 30
0.0
 11
168.505399775
 21
461.7910351332
 31
0.0
  0
SPLINE
  5
C4
330
1F
100
AcDbEntity
  8
0
  6
Continuous
 62
     7
370
    25
100
AcDbSpline
210
0.0
220
0.0
230
1.0
 70
    11
 71
     3
 72
    99
 73
    95
 74
     0
 42
0.00000001
 43
0.00000001
 40
0.0
 40
0.0
 40
0.0
 40
0.0
 40
0.03125
 40
0.03125
 40
0.046875
 40
0.046875
 40
0.0625
 40
0.0625
 40
0.0937500000000001
 40
0.0937500000000001
 40
0.1093750000000001
 40
0.1093750000000001
 40
0.1250000000000002
 40
0.1250000000000002
 40
0.1562500000000002
 40
0.1562500000000002
 40
0.1718750000000002
 40
0.1718750000000002
 40
0.1875000000000002
 40
0.2031250000000002
 40
0.2031250000000002
 40
0.2187500000000002
 40
0.2187500000000002
 40
0.2500000000000002
 40
0.2500000000000002
 40
0.2656250000000002
 40
0.2656250000000002
 40
0.2812500000000002
 40
0.2812500000000002
 40
0.3125000000000002
 40
0.3125000000000002
 40
0.3281250000000002
 40
0.3281250000000002
 40
0.3437500000000002
 40
0.3437500000000002
 40
0.3750000000000002
 40
0.3750000000000002
 40
0.4062500000000001
 40
0.4062500000000001
 40
0.4218750000000001
 40
0.4218750000000001
 40
0.4375000000000001
 40
0.4375000000000001
 40
0.4687500000000001
 40
0.4687500000000001
 40
0.4843750000000001
 40
0.4843750000000001
 40
0.5
 40
0.5
 40
0.53125
 40
0.53125
 40
0.546875
 40
0.546875
 40
0.5625
 40
0.578125
 40
0.578125
 40
0.59375
 40
0.59375
 40
0.625
 40
0.625
 40
0.640625
 40
0.640625
 40
0.65625
 40
0.65625
 40
0.6875
 40
0.6875
 40
0.703125
 40
0.703125
 40
0.71875
 40
0.71875
 40
0.75
 40
0.75
 40
0.78125
 40
0.78125
 40
0.796875
 40
0.796875
 40
0.8125
 40
0.8125
 40
0.84375
 40
0.84375
 40
0.859375
 40
0.859375
 40
0.875
 40
0.875
 40
0.90625
 40
0.90625
 40
0.921875
 40
0.921875
 40
0.9375
 40
0.953125
 40
0.953125
 40
0.96875
 40
0.96875
 40
1.0
 40
1.0
 40
1.0
 40
1.0
 10
138.5053997750282
 20
487.0668040055164
 30
0.0
 10
139.3647381324599
 20
487.0668040055164
 30
0.0
 10
140.2096233537638
 20
487.1511719992035
 30
0.0
 10
141.4561795698574
 20
487.3990346424978
 30
0.0
 10
141.8682107531049
 20
487.5020247036468
 30
0.0
 10
142.6851443884598
 20
487.7496650704612
 30
0.0
 10
143.0910575176185
 20
487.8949829723663
 30
0.0
 10
144.2716271785355
 20
488.3844858146823
 30
0.0
 10
145.0181261993997
 20
488.783813894318
 30
0.0
 10
146.0777108286586
 20
489.4913383827131
 30
0.0
 10
146.4220743584305
 20
489.7464548471269
 30
0.0
 10
147.0840296248431
 20
490.2897669742669
 30
0.0
 10
147.3990796344266
 20
490.5756482132557
 30
0.0
 10
148.2979391552179
 20
491.4746860276744
 30
0.0
 10
148.8359005950895
 20
492.1288406535999
 30
0.0
 10
149.5486729749707
 20
493.1944867563022
 30
0.0
 10
149.7698368225631
 20
493.5634720283526
 30
0.0
 10
150.1708013678871
 20
494.3136071133181
 30
0.0
 10
150.5331335132665
 20
495.0797942383334
 30
0.0
 10
150.8192953641803
 20
495.8776607776934
 30
0.0
 10
151.0668102442895
 20
496.6916132573527
 30
0.0
 10
151.1716564913544
 20
497.1089408675858
 30
0.0
 10
151.4222453941878
 20
498.3676414361238
 30
0.0
 10
151.5049360654428
 20
499.2114198507269
 30
0.0
 10
151.5056287406405
 20
500.4838810921256
 30
0.0
 10
151.4851546499693
 20
500.9091751778544
 30
0.0
 10
151.4015056592676
 20
501.7621148407408
 30
0.0
 10
151.3384385534261
 20
502.1866640659866
 30
0.0
 10
151.0895949174745
 20
503.4373820675397
 30
0.0
 10
150.8441054536866
 20
504.2479623445378
 30
0.0
 10
150.355728467937
 20
505.4288134786667
 30
0.0
 10
150.1715927839761
 20
505.8185021303868
 30
0.0
 10
149.7692912825117
 20
506.57117474751
 30
0.0
 10
149.5509398404594
 20
506.9352316774396
 30
0.0
 10
148.8454680663456
 20
507.9914493488004
 30
0.0
 10
148.3084289771516
 20
508.6480108368572
 30
0.0
 10
147.0953018610196
 20
509.8622148888339
 30
0.0
 10
146.4388959734089
 20
510.4000696328714
 30
0.0
 10
145.383494915958
 20
511.1063235759559
 30
0.0
 10
145.0197497310806
 20
511.3249193000323
 30
0.0
 10
144.2678026302848
 20
511.7277057145724
 30
0.0
 10
143.8781980835936
 20
511.9122503416069
 30
0.0
 10
142.6973805190594
 20
512.4018572970334
 30
0.0
 10
141.8870826705455
 20
512.6479886528948
 30
0.0
 10
140.6372664759154
 20
512.8978460892275
 30
0.0
 10
140.2135715554204
 20
512.96122499122
 30
0.0
 10
139.3599761339475
 20
513.0457732494378
 30
0.0
 10
138.9344492902358
 20
513.0666479968055
 30
0.0
 10
137.6615607080869
 20
513.0671134159311
 30
0.0
 10
136.8178562943346
 20
512.9851333413519
 30
0.0
 10
135.5597955168617
 20
512.735907151018
 30
0.0
 10
135.1419697213022
 20
512.6313767815647
 30
0.0
 10
134.3273288800377
 20
512.3844691400844
 30
0.0
 10
133.5289155628907
 20
512.0989046446929
 30
0.0
 10
132.7624235606212
 20
511.7372375668025
 30
0.0
 10
132.0120874124266
 20
511.3370165088068
 30
0.0
 10
131.6431158068085
 20
511.1163215000138
 30
0.0
 10
130.5763921154504
 20
510.4042093869995
 30
0.0
 10
129.921694945246
 20
509.8667112826432
 30
0.0
 10
129.0219723191399
 20
508.968722141524
 30
0.0
 10
128.7358847901836
 20
508.6539913628001
 30
0.0
 10
128.1921831081702
 20
507.9927595775997
 30
0.0
 10
127.9365676329901
 20
507.6483742256053
 30
0.0
 10
127.2280183755868
 20
506.5892535581303
 30
0.0
 10
126.8281390444516
 20
505.8432062834638
 30
0.0
 10
126.3378048452369
 20
504.6636446581986
 30
0.0
 10
126.1921457844143
 20
504.2580011485259
 30
0.0
 10
125.9436360592547
 20
503.4408890189707
 30
0.0
 10
125.8402561650855
 20
503.028836944375
 30
0.0
 10
125.5912746995438
 20
501.7824323744143
 30
0.0
 10
125.5062318037157
 20
500.9379312754718
 30
0.0
 10
125.5045797776764
 20
499.2206893186604
 30
0.0
 10
125.5882679169754
 20
498.3740230674003
 30
0.0
 10
125.8349975829776
 20
497.1273552515198
 30
0.0
 10
125.9375908003413
 20
496.7153638036623
 30
0.0
 10
126.1843396603835
 20
495.8986567549821
 30
0.0
 10
126.3292927247631
 20
495.4925175411784
 30
0.0
 10
126.8179759848856
 20
494.3108641709655
 30
0.0
 10
127.2167314152895
 20
493.5639607797662
 30
0.0
 10
127.9230770115925
 20
492.504086519772
 30
0.0
 10
128.1774945853108
 20
492.1599738142829
 30
0.0
 10
128.7205535834413
 20
491.4970680534709
 30
0.0
 10
129.0062835389466
 20
491.1816220641555
 30
0.0
 10
129.9047427334586
 20
490.2817455977199
 30
0.0
 10
130.5583482581967
 20
489.7433346273558
 30
0.0
 10
131.6227095208978
 20
489.0300025295929
 30
0.0
 10
131.9917521885988
 20
488.8083219776176
 30
0.0
 10
132.7418437526148
 20
488.4065105088149
 30
0.0
 10
133.5078786828032
 20
488.0434333749549
 30
0.0
 10
134.3053403346107
 20
487.7566334262607
 30
0.0
 10
135.1187400796109
 20
487.5084866380962
 30
0.0
 10
135.5351803773126
 20
487.4034107421255
 30
0.0
 10
136.7961207184682
 20
487.1511819158822
 30
0.0
 10
137.6460614175965
 20
487.0668040055164
 30
0.0
 10
138.5053997750282
 20
487.0668040055164
 30
0.0
  0
LINE
  5
C5
330
1F
100
AcDbEntity
  8
0
  6
Continuous
 62
     7
370
    25
100
AcDbLine
 10
168.505399775
 20
639.7092044432
 30
0.0
 11
108.505399775
 21
639.7092044432
 31
0.0
  0
LINE
  5
C6
330
1F
100
AcDbEntity
  8
0
  6
Continuous
 62
     7
370
    25
100
AcDbLine
 10
218.505399775
 20
661.7910351332
 30
0.0
 11
58.505399775
 21
661.7910351332
 31
0.0
  0
LINE
  5
C7
330
1F
100
AcDbEntity
  8
0
  6
Continuous
 62
     7
370
    25
100
AcDbLine
 10
58.505399775
 20
661.7910351332
 30
0.0
 11
58.505399775
 21
646.7910351332
 31
0.0
  0
LINE
  5
C8
330
1F
100
AcDbEntity
  8
0
  6
Continuous
 62
     7
370
    25
100
AcDbLine
 10
218.505399775
 20
661.7910351332
 30
0.0
 11
218.505399775
 21
646.7910351332
 31
0.0
  0
INSERT
  5
D4
330
1F
100
AcDbEntity
  8
FORMAT
100
AcDbBlockReference
  2
SW_CENTERMARKSYMBOL_0
 10
138.505399775
 20
500.0668040055
 30
0.0
  0
LINE
  5
D5
330
1F
100
AcDbEntity
  8
0
  6
Continuous
 62
     7
370
    25
100
AcDbLine
 10
-229.5459312393
 20
236.0494
 30
0.0
 11
-229.5459312393
 21
220.8826387438
 31
0.0
  0
LINE
  5
D6
330
1F
100
AcDbEntity
  8
0
  6
Continuous
 62
     7
370
    25
100
AcDbLine
 10
-215.5459312393
 20
220.8866754256
 30
0.0
 11
-215.5459312393
 21
236.0494
 31
0.0
  0
LINE
  5
D7
330
1F
100
AcDbEntity
  8
0
  6
Continuous
 62
     7
370
    25
100
AcDbLine
 10
-238.5459312393
 20
269.0494
 30
0.0
 11
-238.5459312393
 21
220.1760573901
 31
0.0
  0
LINE
  5
D8
330
1F
100
AcDbEntity
  8
0
  6
Continuous
 62
     7
370
    25
100
AcDbLine
 10
-206.5459312393
 20
220.1818250681
 30
0.0
 11
-206.5459312393
 21
269.0494
 31
0.0
  0
LINE
  5
D9
330
1F
100
AcDbEntity
  8
0
  6
Continuous
 62
     7
370
    25
100
AcDbLine
 10
-384.2701623669
 20
65.0494
 30
0.0
 11
-369.2701623669
 21
65.0494
 31
0.0
  0
LINE
  5
DA
330
1F
100
AcDbEntity
  8
0
  6
Continuous
 62
     7
370
    25
100
AcDbLine
 10
-384.2701623669
 20
72.0494
 30
0.0
 11
-384.2701623669
 21
65.0494
 31
0.0
  0
LINE
  5
DB
330
1F
100
AcDbEntity
  8
0
  6
Continuous
 62
     7
370
    25
100
AcDbLine
 10
-362.531644796
 20
72.0494
 30
0.0
 11
-384.2701623669
 21
72.0494
 31
0.0
  0
ARC
  5
DC
330
1F
100
AcDbEntity
  8
0
  6
Continuous
 62
     7
370
    25
100
AcDbCircle
 10
-222.5459312393
 20
74.0494
 30
0.0
 40
140.0
100
AcDbArc
 50
180.818538979
 51
179.181461021
  0
LINE
  5
DD
330
1F
100
AcDbEntity
  8
0
  6
Continuous
 62
     7
370
    25
100
AcDbLine
 10
-384.2701623669
 20
76.0494
 30
0.0
 11
-362.531644796
 21
76.0494
 31
0.0
  0
LINE
  5
DE
330
1F
100
AcDbEntity
  8
0
  6
Continuous
 62
     7
370
    25
100
AcDbLine
 10
-384.2701623669
 20
83.0494
 30
0.0
 11
-384.2701623669
 21
76.0494
 31
0.0
  0
LINE
  5
DF
330
1F
100
AcDbEntity
  8
0
  6
Continuous
 62
     7
370
    25
100
AcDbLine
 10
-369.2701623669
 20
83.0494
 30
0.0
 11
-384.2701623669
 21
83.0494
 31
0.0
  0
ARC
  5
E0
330
1F
100
AcDbEntity
  8
0
  6
Continuous
 62
     7
370
    25
100
AcDbCircle
 10
-222.5459312393
 20
74.0494
 30
0.0
 40
147.0000000000001
100
AcDbArc
 50
183.5101001005
 51
176.4898998995
  0
LINE
  5
E1
330
1F
100
AcDbEntity
  8
0
  6
Continuous
 62
     7
370
    25
100
AcDbLine
 10
-215.5459312393
 20
236.0494
 30
0.0
 11
-229.5459312393
 21
236.0494
 31
0.0
  0
LINE
  5
E2
330
1F
100
AcDbEntity
  8
0
  6
Continuous
 62
     7
370
    25
100
AcDbLine
 10
-238.5459312393
 20
269.0494
 30
0.0
 11
-206.5459312393
 21
269.0494
 31
0.0
  0
LINE
  5
E3
330
1F
100
AcDbEntity
  8
0
  6
Continuous
 62
     7
370
    25
100
AcDbLine
 10
218.505399775
 20
-161.0697341396
 30
0.0
 11
58.505399775
 21
-161.0697341396
 31
0.0
  0
CIRCLE
  5
E4
330
1F
100
AcDbEntity
  8
0
  6
Continuous
 62
     7
370
    25
100
AcDbCircle
 10
138.505399775
 20
-308.0697341396
 30
0.0
 40
16.0
  0
CIRCLE
  5
E5
330
1F
100
AcDbEntity
  8
0
  6
Continuous
 62
     7
370
    25
100
AcDbCircle
 10
138.505399775
 20
-308.0697341396
 30
0.0
 40
13.0
  0
CIRCLE
  5
E6
330
1F
100
AcDbEntity
  8
0
  6
Continuous
 62
     7
370
    25
100
AcDbCircle
 10
68.505399775
 20
-308.0697341396
 30
0.0
 40
4.600000000000023
  0
CIRCLE
  5
E7
330
1F
100
AcDbEntity
  8
0
  6
Continuous
 62
     7
370
    25
100
AcDbCircle
 10
68.505399775
 20
-308.0697341396
 30
0.0
 40
7.0
  0
CIRCLE
  5
E8
330
1F
100
AcDbEntity
  8
0
  6
Continuous
 62
     7
370
    25
100
AcDbCircle
 10
208.505399775
 20
-308.0697341396
 30
0.0
 40
4.600000000000023
  0
CIRCLE
  5
E9
330
1F
100
AcDbEntity
  8
0
  6
Continuous
 62
     7
370
    25
100
AcDbCircle
 10
208.505399775
 20
-308.0697341396
 30
0.0
 40
7.0
  0
CIRCLE
  5
EA
330
1F
100
AcDbEntity
  8
0
  6
Continuous
 62
     7
370
    25
100
AcDbCircle
 10
68.505399775
 20
-308.0697341396
 30
0.0
 40
1.5
  0
CIRCLE
  5
EB
330
1F
100
AcDbEntity
  8
0
  6
Continuous
 62
     7
370
    25
100
AcDbCircle
 10
68.505399775
 20
-308.0697341396
 30
0.0
 40
2.000000000000057
  0
CIRCLE
  5
EC
330
1F
100
AcDbEntity
  8
0
  6
Continuous
 62
     7
370
    25
100
AcDbCircle
 10
208.505399775
 20
-308.0697341396
 30
0.0
 40
1.5
  0
CIRCLE
  5
ED
330
1F
100
AcDbEntity
  8
0
  6
Continuous
 62
     7
370
    25
100
AcDbCircle
 10
208.505399775
 20
-308.0697341396
 30
0.0
 40
2.000000000000057
  0
LINE
  5
EE
330
1F
100
AcDbEntity
  8
0
  6
Continuous
 62
     7
370
    25
100
AcDbLine
 10
218.505399775
 20
-161.0697341396
 30
0.0
 11
218.505399775
 21
-454.7939652672
 31
0.0
  0
LINE
  5
EF
330
1F
100
AcDbEntity
  8
0
  6
Continuous
 62
     7
370
    25
100
AcDbLine
 10
218.505399775
 20
-454.7939652672
 30
0.0
 11
58.505399775
 21
-454.7939652672
 31
0.0
  0
LINE
  5
F0
330
1F
100
AcDbEntity
  8
0
  6
Continuous
 62
     7
370
    25
100
AcDbLine
 10
58.505399775
 20
-161.0697341396
 30
0.0
 11
58.505399775
 21
-454.7939652672
 31
0.0
  0
LINE
  5
F1
330
1F
100
AcDbEntity
  8
0
  6
Continuous
 62
     7
370
    25
100
AcDbLine
 10
218.505399775
 20
-469.7939652672
 30
0.0
 11
58.505399775
 21
-469.7939652672
 31
0.0
  0
LINE
  5
F2
330
1F
100
AcDbEntity
  8
0
  6
Continuous
 62
     7
370
    25
100
AcDbLine
 10
58.505399775
 20
-454.7939652672
 30
0.0
 11
58.505399775
 21
-469.7939652672
 31
0.0
  0
LINE
  5
F3
330
1F
100
AcDbEntity
  8
0
  6
Continuous
 62
     7
370
    25
100
AcDbLine
 10
218.505399775
 20
-454.7939652672
 30
0.0
 11
218.505399775
 21
-469.7939652672
 31
0.0
  0
INSERT
  5
FF
330
1F
100
AcDbEntity
  8
FORMAT
100
AcDbBlockReference
  2
SW_CENTERMARKSYMBOL_1
 10
138.505399775
 20
-308.0697341396
 30
0.0
  0
INSERT
  5
10B
330
1F
100
AcDbEntity
  8
FORMAT
100
AcDbBlockReference
  2
SW_CENTERMARKSYMBOL_2
 10
68.505399775
 20
-308.0697341396
 30
0.0
  0
INSERT
  5
117
330
1F
100
AcDbEntity
  8
FORMAT
100
AcDbBlockReference
  2
SW_CENTERMARKSYMBOL_3
 10
208.505399775
 20
-308.0697341396
 30
0.0
  0
LINE
  5
118
330
1F
100
AcDbEntity
  8
0
  6
Continuous
 62
     7
370
    25
100
AcDbLine
 10
488.1494601508
 20
-450.5160237641
 30
0.0
 11
601.2865451406
 21
-385.2033748182
 31
0.0
  0
LINE
  5
119
330
1F
100
AcDbEntity
  8
0
  6
Continuous
 62
     7
370
    25
100
AcDbLine
 10
454.2984914431
 20
-130.5850092783
 30
0.0
 11
341.1614064533
 21
-195.8976582241
 31
0.0
  0
LINE
  5
11A
330
1F
100
AcDbEntity
  8
0
  6
Continuous
 62
     7
370
    25
100
AcDbLine
 10
513.72145048
 20
-129.6966210819
 30
0.0
 11
513.72145048
 21
-130.8445258189
 31
0.0
  0
LINE
  5
11B
330
1F
100
AcDbEntity
  8
0
  6
Continuous
 62
     7
370
    25
100
AcDbLine
 10
527.72145048
 20
-137.8216941813
 30
0.0
 11
527.72145048
 21
-129.6966210819
 31
0.0
  0
LINE
  5
11C
330
1F
100
AcDbEntity
  8
0
  6
Continuous
 62
     7
370
    25
100
AcDbLine
 10
413.4362177793
 20
-199.2265722698
 30
0.0
 11
424.0428194971
 21
-205.3496331085
 31
0.0
  0
LINE
  5
11D
330
1F
100
AcDbEntity
  8
0
  6
Continuous
 62
     7
370
    25
100
AcDbLine
 10
413.4362177793
 20
-193.5107865866
 30
0.0
 11
413.4362177793
 21
-199.2265722698
 31
0.0
  0
LINE
  5
11E
330
1F
100
AcDbEntity
  8
0
  6
Continuous
 62
     7
370
    25
100
AcDbLine
 10
428.8076709666
 20
-202.3845376285
 30
0.0
 11
413.4362177793
 21
-193.5107865866
 31
0.0
  0
LWPOLYLINE
  5
11F
330
1F
100
AcDbEntity
  8
0
  6
Continuous
 62
     7
370
    25
100
AcDbPolyline
 90
      129
 70
   128
 43
0.0
 10
428.8076709666
 20
-199.118374381
 10
428.9948977001
 20
-193.6452581039
 10
429.4179772159
 20
-188.3255188993
 10
430.0758995251
 20
-183.1718562159
 10
430.967094015
 20
-178.1965730389
 10
432.0894331982
 20
-173.4115465205
 10
433.4402377913
 20
-168.8281996264
 10
435.0162831111
 20
-164.4574738662
 10
436.8138067729
 20
-160.3098031736
 10
438.8285176715
 20
-156.3950889983
 10
441.055606226
 20
-152.7226766691
 10
443.4897558607
 20
-149.3013330838
 10
446.1251556969
 20
-146.1392257814
 10
448.9555144256
 20
-143.2439034436
 10
451.9740753255
 20
-140.622277875
 10
455.1736323932
 20
-138.2806075022
 10
458.5465475456
 20
-136.2244824345
 10
462.0847688538
 20
-134.4588111182
 10
465.7798497647
 20
-132.9878086191
 10
469.6229692652
 20
-131.8149865608
 10
473.6049529396
 20
-130.9431447408
 10
477.7162948717
 20
-130.3743644473
 10
481.9471803367
 20
-130.1100034906
 10
486.2875092321
 20
-130.1506929612
 10
490.7269201884
 20
-130.4963357242
 10
495.2548153044
 20
-131.1461066502
 10
499.8603854466
 20
-132.0984545857
 10
504.5326360535
 20
-133.3511060557
 10
509.2604133817
 20
-134.9010706914
 10
514.0324311326
 20
-136.7446483685
 10
518.8372973957
 20
-138.8774380405
 10
523.6635418433
 20
-141.2943482448
 10
528.4996431131
 20
-143.9896092577
 10
533.3340563124
 20
-146.9567868673
 10
538.155240578
 20
-150.188797734
 10
542.9516866277
 20
-153.6779263002
 10
547.7119442347
 20
-157.4158432084
 10
552.4246495625
 20
-161.3936251861
 10
557.0785522932
 20
-165.6017763472
 10
561.6625424838
 20
-170.0302508611
 10
566.1656770892
 20
-174.6684769344
 10
570.5772060849
 20
-179.5053820483
 10
574.8865981304
 20
-184.5294193908
 10
579.0835657098
 20
-189.7285954224
 10
583.1580896902
 20
-195.0904985066
 10
587.10044324
 20
-200.6023285402
 10
590.901215049
 20
-206.2509275094
 10
594.5513317955
 20
-212.0228109013
 10
598.0420798061
 20
-217.9041998947
 10
601.3651258575
 20
-223.8810542531
 10
604.5125370699
 20
-229.9391058421
 10
607.4767998444
 20
-236.0638926907
 10
610.2508377998
 20
-242.2407935154
 10
612.8280286657
 20
-248.4550626247
 10
615.2022200909
 20
-254.69186512
 10
617.3677443313
 20
-260.9363123108
 10
619.3194317794
 20
-267.1734972566
 10
621.0526233055
 20
-273.3885303536
 10
622.5631813805
 20
-279.5665748796
 10
623.8474999527
 20
-285.6928824128
 10
624.9025130564
 20
-291.7528280395
 10
625.7257021313
 20
-297.7319452672
 10
626.3151020345
 20
-303.6159605594
 10
626.6693057322
 20
-309.3908274101
 10
626.787467658
 20
-315.0427598759
 10
626.6693057322
 20
-320.558265486
 10
626.3151020345
 20
-325.9241774523
 10
625.7257021313
 20
-331.1276861012
 10
624.9025130564
 20
-336.1563694535
 10
623.8474999527
 20
-340.9982228785
 10
622.5631813805
 20
-345.6416877515
 10
621.0526233055
 20
-350.0756790473
 10
619.3194317794
 20
-354.2896118029
 10
617.3677443313
 20
-358.2734263855
 10
615.2022200909
 20
-362.0176125079
 10
612.8280286657
 20
-365.5132319313
 10
610.2508377998
 20
-368.7519398035
 10
607.4767998444
 20
-371.7260045792
 10
604.5125370699
 20
-374.4283264775
 10
601.3651258575
 20
-376.8524544309
 10
598.0420798061
 20
-378.9926014849
 10
594.5513317955
 20
-380.8436586133
 10
590.901215049
 20
-382.4012069144
 10
587.10044324
 20
-383.66152816
 10
583.1580896902
 20
-384.6216136716
 10
579.0835657098
 20
-385.2791715029
 10
574.8865981304
 20
-385.6326319113
 10
570.5772060849
 20
-385.681151105
 10
566.1656770892
 20
-385.4246132573
 10
561.6625424838
 20
-384.8636307836
 10
557.0785522932
 20
-383.9995428787
 10
552.4246495625
 20
-382.8344123205
 10
547.7119442347
 20
-381.3710205453
 10
542.9516866277
 20
-379.6128610078
 10
538.155240578
 20
-377.5641308416
 10
533.3340563124
 20
-375.2297208399
 10
528.4996431131
 20
-372.6152037793
 10
523.6635418433
 20
-369.7268211172
 10
518.8372973957
 20
-366.5714680913
 10
514.0324311326
 20
-363.1566772595
 10
509.2604133817
 20
-359.4906005177
 10
504.5326360535
 20
-355.5819896394
 10
499.8603854466
 20
-351.4401753831
 10
495.2548153044
 20
-347.075045218
 10
490.7269201884
 20
-342.4970197199
 10
486.2875092321
 20
-337.7170276949
 10
481.9471803367
 20
-332.7464800901
 10
477.7162948717
 20
-327.597242753
 10
473.6049529396
 20
-322.2816081044
 10
469.6229692652
 20
-316.8122657944
 10
465.7798497647
 20
-311.2022724087
 10
462.0847688538
 20
-305.4650202996
 10
458.5465475456
 20
-299.6142056155
 10
455.1736323932
 20
-293.663795605
 10
451.9740753255
 20
-287.6279952737
 10
448.9555144256
 20
-281.5212134737
 10
446.1251556969
 20
-275.3580285062
 10
443.4897558607
 20
-269.1531533199
 10
441.055606226
 20
-262.9214003878
 10
438.8285176715
 20
-256.677646346
 10
436.8138067729
 20
-250.4367964804
 10
435.0162831111
 20
-244.2137491436
 10
433.4402377913
 20
-238.0233601897
 10
432.0894331982
 20
-231.8804075095
 10
430.967094015
 20
-225.7995557527
 10
430.0758995251
 20
-219.7953213195
 10
429.4179772159
 20
-213.8820377068
 10
428.9948977001
 20
-208.0738212909
 10
428.8076709666
 20
-202.3845376285
  0
LINE
  5
120
330
1F
100
AcDbEntity
  8
0
  6
Continuous
 62
     7
370
    25
100
AcDbLine
 10
413.4362177793
 20
-190.2446233391
 30
0.0
 11
428.8076709666
 21
-199.118374381
 31
0.0
  0
LINE
  5
121
330
1F
100
AcDbEntity
  8
0
  6
Continuous
 62
     7
370
    25
100
AcDbLine
 10
413.4362177793
 20
-184.5288376559
 30
0.0
 11
413.4362177793
 21
-190.2446233391
 31
0.0
  0
LINE
  5
122
330
1F
100
AcDbEntity
  8
0
  6
Continuous
 62
     7
370
    25
100
AcDbLine
 10
424.0428194971
 20
-190.6518984945
 30
0.0
 11
413.4362177793
 21
-184.5288376559
 31
0.0
  0
LWPOLYLINE
  5
123
330
1F
100
AcDbEntity
  8
0
  6
Continuous
 62
     7
370
    25
100
AcDbPolyline
 90
      130
 70
   128
 43
0.0
 10
424.0428194971
 20
-205.3496331085
 10
424.4649183514
 20
-211.3043488896
 10
425.1226353965
 20
-217.3653036095
 10
426.0144708388
 20
-223.5186764576
 10
427.1383910235
 20
-229.7504358819
 10
428.4918330725
 20
-236.0463715856
 10
430.0717107285
 20
-242.3921269302
 10
431.8744213925
 20
-248.7732316737
 10
433.8958543386
 20
-255.1751349665
 10
436.1314000881
 20
-261.5832385321
 10
438.5759609204
 20
-267.9829299556
 10
441.2239624971
 20
-274.3596160042
 10
444.0693665734
 20
-280.6987559043
 10
447.1056847671
 20
-286.985894499
 10
450.3259933541
 20
-293.2066952101
 10
453.7229490564
 20
-299.3469727297
 10
457.2888057873
 20
-305.3927253673
 10
461.0154323145
 20
-311.3301669776
 10
464.8943308019
 20
-317.1457583974
 10
468.9166561875
 20
-322.8262383186
 10
473.0732363523
 20
-328.3586535283
 10
477.354593036
 20
-333.7303884458
 10
481.7509634499
 20
-338.9291938904
 10
486.2523225392
 20
-343.9432150127
 10
490.8484058434
 20
-348.7610183273
 10
495.5287329019
 20
-353.3716177851
 10
500.2826311529
 20
-357.7644998244
 10
505.09926027
 20
-361.9296473448
 10
509.9676368816
 20
-365.85756255
 10
514.8766596159
 20
-369.5392886047
 10
519.8151344159
 20
-372.9664300597
 10
524.7718000647
 20
-376.1311719954
 10
529.7353538651
 20
-379.0262978427
 10
534.6944774125
 20
-381.6452058388
 10
539.6378624049
 20
-383.9819240809
 10
544.5542364287
 20
-386.0311241446
 10
549.4323886637
 20
-387.7881332337
 10
554.2611954468
 20
-389.2489448358
 10
559.0296456376
 20
-390.4102278585
 10
563.7268657268
 20
-391.2693342252
 10
568.3421446316
 20
-391.8243049133
 10
572.8649581194
 20
-392.0738744219
 10
577.2849928072
 20
-392.0174736569
 10
581.5921696785
 20
-391.6552312291
 10
585.7766670669
 20
-390.9879731609
 10
589.8289430523
 20
-390.0172210026
 10
593.7397572193
 20
-388.7451883627
 10
597.5001917284
 20
-387.1747758606
 10
601.1016716511
 20
-385.3095645119
 10
604.5359845235
 20
-383.1538075629
 10
607.7952990732
 20
-380.7124207916
 10
610.8721830768
 20
-377.9909712986
 10
613.759620308
 20
-374.9956648121
 10
616.4510265361
 20
-371.7333315371
 10
618.9402645407
 20
-368.2114105807
 10
621.2216581059
 20
-364.4379329881
 10
623.2900049642
 20
-360.42150343
 10
625.1405886588
 20
-356.171280581
 10
626.7691892992
 20
-351.6969562352
 10
628.172093183
 20
-347.0087332058
 10
629.3461012649
 20
-342.1173020598
 10
630.2885364514
 20
-337.0338167403
 10
630.9972497049
 20
-331.7698691317
 10
631.470624945
 20
-326.3374626274
 10
631.7075827327
 20
-320.7489847578
 10
631.7075827327
 20
-315.0171789433
 10
631.470624945
 20
-309.1551154354
 10
630.9972497049
 20
-303.1761615125
 10
630.2885364514
 20
-297.0939509986
 10
629.3461012649
 20
-290.9223531739
 10
628.172093183
 20
-284.6754411488
 10
626.7691892992
 20
-278.3674597727
 10
625.1405886588
 20
-272.0127931517
 10
623.2900049642
 20
-265.6259318485
 10
621.2216581059
 20
-259.2214398392
 10
618.9402645407
 20
-252.8139213034
 10
616.4510265361
 20
-246.4179873219
 10
613.759620308
 20
-240.0482225595
 10
610.8721830768
 20
-233.7191520071
 10
607.7952990732
 20
-227.4452078604
 10
604.5359845235
 20
-221.2406966104
 10
601.1016716511
 20
-215.1197664199
 10
597.5001917284
 20
-209.0963748619
 10
593.7397572193
 20
-203.1842570914
 10
589.8289430523
 20
-197.3968945258
 10
585.7766670669
 20
-191.7474841028
 10
581.5921696785
 20
-186.2489081875
 10
577.2849928072
 20
-180.9137051965
 10
572.8649581194
 20
-175.7540410069
 10
568.3421446315
 20
-170.7816812143
 10
563.7268657268
 20
-166.0079643034
 10
559.0296456376
 20
-161.4437757931
 10
554.2611954468
 20
-157.0995234141
 10
549.4323886637
 20
-152.9851133764
 10
544.5542364287
 20
-149.1099277796
 10
539.6378624049
 20
-145.4828032193
 10
534.6944774125
 20
-142.1120106371
 10
529.7353538651
 20
-139.0052364599
 10
524.7718000647
 20
-136.1695650728
 10
519.8151344158
 20
-133.6114626645
 10
514.8766596159
 20
-131.3367624825
 10
509.9676368816
 20
-129.3506515315
 10
505.09926027
 20
-127.6576587453
 10
500.2826311529
 20
-126.2616446598
 10
495.5287329019
 20
-125.1657926094
 10
490.8484058434
 20
-124.3726014684
 10
486.2523225392
 20
-123.8838799526
 10
481.7509634499
 20
-123.7007424949
 10
477.354593036
 20
-123.8236067041
 10
473.0732363523
 20
-124.2521924126
 10
468.9166561875
 20
-124.9855223154
 10
464.8943308019
 20
-126.0219241984
 10
461.0154323145
 20
-127.3590347517
 10
457.2888057873
 20
-128.9938049587
 10
453.7229490564
 20
-130.9225070487
 10
450.3259933541
 20
-133.1407429974
 10
447.1056847671
 20
-135.6434545557
 10
444.0693665734
 20
-138.424934784
 10
441.2239624971
 20
-141.4788410657
 10
438.5759609204
 20
-144.7982095707
 10
436.1314000881
 20
-148.3754711343
 10
433.8958543386
 20
-152.2024685179
 10
431.8744213925
 20
-156.2704750095
 10
430.0717107285
 20
-160.5702143235
 10
428.4918330725
 20
-165.0918817534
 10
427.1383910235
 20
-169.8251665292
 10
426.0144708388
 20
-174.7592753296
 10
425.1226353965
 20
-179.8829568936
 10
424.4649183514
 20
-185.1845276771
 10
424.0428194971
 20
-190.6518984945
  0
LINE
  5
124
330
1F
100
AcDbEntity
  8
0
  6
Continuous
 62
     7
370
    25
100
AcDbLine
 10
424.0428194971
 20
-205.3496331085
 30
0.0
 11
310.9057345073
 21
-270.6622820543
 31
0.0
  0
LWPOLYLINE
  5
125
330
1F
100
AcDbEntity
  8
0
  6
Continuous
 62
     7
370
    25
100
AcDbPolyline
 90
       50
 70
   128
 43
0.0
 10
310.9057345073
 20
-270.6622820543
 10
311.3278333615
 20
-276.6169978354
 10
311.9855504067
 20
-282.6779525553
 10
312.8773858489
 20
-288.8313254034
 10
314.0013060336
 20
-295.0630848277
 10
315.3547480827
 20
-301.3590205314
 10
316.9346257387
 20
-307.7047758761
 10
318.7373364026
 20
-314.0858806195
 10
320.7587693487
 20
-320.4877839123
 10
322.9943150983
 20
-326.8958874779
 10
325.4388759305
 20
-333.2955789014
 10
328.0868775072
 20
-339.67226495
 10
330.9322815835
 20
-346.0114048501
 10
333.9685997773
 20
-352.2985434448
 10
337.1889083643
 20
-358.5193441559
 10
340.5858640666
 20
-364.6596216755
 10
344.1517207975
 20
-370.7053743131
 10
347.8783473246
 20
-376.6428159234
 10
351.7572458121
 20
-382.4584073432
 10
355.7795711977
 20
-388.1388872644
 10
359.9361513625
 20
-393.6713024741
 10
364.2175080461
 20
-399.0430373917
 10
368.61387846
 20
-404.2418428363
 10
373.1152375494
 20
-409.2558639585
 10
377.7113208536
 20
-414.0736672731
 10
382.391647912
 20
-418.6842667309
 10
387.145546163
 20
-423.0771487702
 10
391.9621752802
 20
-427.2422962907
 10
396.8305518917
 20
-431.1702114958
 10
401.739574626
 20
-434.8519375505
 10
406.678049426
 20
-438.2790790055
 10
411.6347150749
 20
-441.4438209412
 10
416.5982688752
 20
-444.3389467885
 10
421.5573924226
 20
-446.9578547846
 10
426.500777415
 20
-449.2945730268
 10
431.4171514388
 20
-451.3437730905
 10
436.2953036738
 20
-453.1007821795
 10
441.124110457
 20
-454.5615937816
 10
445.8925606477
 20
-455.7228768044
 10
450.589780737
 20
-456.581983171
 10
455.2050596417
 20
-457.1369538592
 10
459.7278731296
 20
-457.3865233677
 10
464.1479078174
 20
-457.3301226027
 10
468.4550846887
 20
-456.9678801749
 10
472.6395820771
 20
-456.3006221067
 10
476.6918580624
 20
-455.3298699484
 10
480.6026722294
 20
-454.0578373085
 10
484.3631067385
 20
-452.4874248064
 10
487.9645866612
 20
-450.6222134577
 10
488.1494601508
 20
-450.5160237641
  0
LWPOLYLINE
  5
126
330
1F
100
AcDbEntity
  8
0
  6
Continuous
 62
     7
370
    25
100
AcDbPolyline
 90
       15
 70
   128
 43
0.0
 10
341.1614064533
 20
-195.8976582241
 10
340.5858640666
 20
-196.2351559945
 10
337.1889083643
 20
-198.4533919432
 10
333.9685997773
 20
-200.9561035015
 10
330.9322815835
 20
-203.7375837298
 10
328.0868775072
 20
-206.7914900116
 10
325.4388759305
 20
-210.1108585165
 10
322.9943150983
 20
-213.6881200802
 10
320.7587693487
 20
-217.5151174637
 10
318.7373364026
 20
-221.5831239554
 10
316.9346257387
 20
-225.8828632694
 10
315.3547480827
 20
-230.4045306992
 10
314.0013060336
 20
-235.137815475
 10
312.8773858489
 20
-240.0719242754
 10
312.3555755002
 20
-242.8814503733
  0
LINE
  5
127
330
1F
100
AcDbEntity
  8
0
  6
Continuous
 62
     7
370
    25
100
AcDbLine
 10
346.3068669383
 20
-251.0950560214
 30
0.0
 11
388.7332738095
 21
-226.6028126667
 31
0.0
  0
LWPOLYLINE
  5
128
330
1F
100
AcDbEntity
  8
0
  6
Continuous
 62
     7
370
    25
100
AcDbPolyline
 90
       38
 70
   128
 43
0.0
 10
477.0758280861
 20
-434.312141251
 10
472.2563416175
 20
-432.8891856142
 10
467.3861789815
 20
-431.169874706
 10
462.476434575
 20
-429.1581251756
 10
457.5382929638
 20
-426.8585198571
 10
452.5830034033
 20
-424.2762973301
 10
447.6218542125
 20
-421.4173399859
 10
442.6661470589
 20
-418.2881606269
 10
437.7271712129
 20
-414.8958876307
 10
432.8161778303
 20
-411.2482487114
 10
427.944354322
 20
-407.3535533149
 10
423.1227988686
 20
-403.2206736907
 10
418.3624951381
 20
-398.8590246798
 10
413.6742872653
 20
-394.2785422678
 10
409.0688551481
 20
-389.4896609502
 10
404.5566901181
 20
-384.5032899625
 10
400.1480710418
 20
-379.3307884283
 10
395.853040904
 20
-373.9839394829
 10
391.6813839304
 20
-368.474923431
 10
387.642603298
 20
-362.8162899996
 10
383.7458994874
 20
-357.0209297491
 10
380.0001493229
 20
-351.1020447084
 10
376.4138857517
 20
-345.0731182999
 10
372.9952784047
 20
-338.9478846241
 10
369.7521149863
 20
-332.7402971729
 10
366.6917835337
 20
-326.4644970427
 10
363.8212555867
 20
-320.1347807207
 10
361.1470703059
 20
-313.7655675172
 10
358.675319577
 20
-307.3713667177
 10
356.4116341326
 20
-300.9667445302
 10
354.3611707256
 20
-294.566290903
 10
352.5286003816
 20
-288.1845862884
 10
350.9180977587
 20
-281.8361684276
 10
349.5333316368
 20
-275.5354992337
 10
348.3774565605
 20
-269.2969318466
 10
347.4531056528
 20
-263.1346779359
 10
346.7623846167
 20
-257.0627753269
 10
346.3068669383
 20
-251.0950560214
  0
LINE
  5
129
330
1F
100
AcDbEntity
  8
0
  6
Continuous
 62
     7
370
    25
100
AcDbLine
 10
519.5022349573
 20
-409.8198978963
 30
0.0
 11
477.0758280861
 21
-434.312141251
 31
0.0
  0
LWPOLYLINE
  5
12A
330
1F
100
AcDbEntity
  8
0
  6
Continuous
 62
     7
370
    25
100
AcDbPolyline
 90
       38
 70
   128
 43
0.0
 10
388.7332738095
 20
-226.6028126667
 10
389.1887914879
 20
-232.5705319723
 10
389.879512524
 20
-238.6424345812
 10
390.8038634317
 20
-244.8046884919
 10
391.959738508
 20
-251.0432558791
 10
393.3445046299
 20
-257.3439250729
 10
394.9550072528
 20
-263.6923429337
 10
396.7875775968
 20
-270.0740475483
 10
398.8380410038
 20
-276.4745011755
 10
401.1017264482
 20
-282.879123363
 10
403.5734771771
 20
-289.2733241625
 10
406.2476624579
 20
-295.642537366
 10
409.1181904049
 20
-301.972253688
 10
412.1785218575
 20
-308.2480538182
 10
415.4216852759
 20
-314.4556412695
 10
418.8402926229
 20
-320.5808749452
 10
422.4265561941
 20
-326.6098013537
 10
426.1723063586
 20
-332.5286863944
 10
430.0690101692
 20
-338.3240466449
 10
434.1077908016
 20
-343.9826800763
 10
438.2794477752
 20
-349.4916961282
 10
442.574477913
 20
-354.8385450736
 10
446.9830969893
 20
-360.0110466078
 10
451.4952620192
 20
-364.9974175955
 10
456.1006941365
 20
-369.7862989131
 10
460.7889020093
 20
-374.3667813251
 10
465.5492057398
 20
-378.728430336
 10
470.3707611932
 20
-382.8613099602
 10
475.2425847015
 20
-386.7560053567
 10
480.1535780841
 20
-390.4036442761
 10
485.0925539301
 20
-393.7959172722
 10
490.0482610836
 20
-396.9250966312
 10
495.0094102744
 20
-399.7840539755
 10
499.964699835
 20
-402.3662765024
 10
504.9028414462
 20
-404.6658818209
 10
509.8125858526
 20
-406.6776313513
 10
514.6827484887
 20
-408.3969422595
 10
519.5022349573
 20
-409.8198978963
  0
SPLINE
  5
12B
330
1F
100
AcDbEntity
  8
0
  6
Continuous
 62
     7
370
    25
100
AcDbSpline
210
0.0
220
0.0
230
1.0
 70
    11
 71
     3
 72
    99
 73
    95
 74
     0
 42
0.00000001
 43
0.00000001
 40
0.0
 40
0.0
 40
0.0
 40
0.0
 40
0.03125
 40
0.03125
 40
0.046875
 40
0.046875
 40
0.0625
 40
0.0625
 40
0.0937500000000001
 40
0.0937500000000001
 40
0.1093750000000001
 40
0.1093750000000001
 40
0.1250000000000002
 40
0.1250000000000002
 40
0.1562500000000002
 40
0.1562500000000002
 40
0.1718750000000002
 40
0.1718750000000002
 40
0.1875000000000002
 40
0.2031250000000002
 40
0.2031250000000002
 40
0.2187500000000002
 40
0.2187500000000002
 40
0.2500000000000002
 40
0.2500000000000002
 40
0.2656250000000002
 40
0.2656250000000002
 40
0.2812500000000002
 40
0.2812500000000002
 40
0.3125000000000002
 40
0.3125000000000002
 40
0.3281250000000002
 40
0.3281250000000002
 40
0.3437500000000002
 40
0.3437500000000002
 40
0.3750000000000002
 40
0.3750000000000002
 40
0.4062500000000001
 40
0.4062500000000001
 40
0.4218750000000001
 40
0.4218750000000001
 40
0.4375000000000001
 40
0.4375000000000001
 40
0.4687500000000001
 40
0.4687500000000001
 40
0.4843750000000001
 40
0.4843750000000001
 40
0.5
 40
0.5
 40
0.53125
 40
0.53125
 40
0.546875
 40
0.546875
 40
0.5625
 40
0.578125
 40
0.578125
 40
0.59375
 40
0.59375
 40
0.625
 40
0.625
 40
0.640625
 40
0.640625
 40
0.65625
 40
0.65625
 40
0.6875
 40
0.6875
 40
0.703125
 40
0.703125
 40
0.71875
 40
0.71875
 40
0.75
 40
0.75
 40
0.78125
 40
0.78125
 40
0.796875
 40
0.796875
 40
0.8125
 40
0.8125
 40
0.84375
 40
0.84375
 40
0.859375
 40
0.859375
 40
0.875
 40
0.875
 40
0.90625
 40
0.90625
 40
0.921875
 40
0.921875
 40
0.9375
 40
0.953125
 40
0.953125
 40
0.96875
 40
0.96875
 40
1.0
 40
1.0
 40
1.0
 40
1.0
 10
480.4163639523802
 20
-182.035363266774
 30
0.0
 10
481.0240079322538
 20
-181.6845778638701
 30
0.0
 10
481.5617748211108
 20
-181.2987686451635
 30
0.0
 10
482.2679578187646
 20
-180.6702313750316
 30
0.0
 10
482.486482891866
 20
-180.45236318217
 30
0.0
 10
482.8890340225348
 20
-179.9997593327253
 30
0.0
 10
483.0733026748707
 20
-179.7642934991005
 30
0.0
 10
483.5619607085565
 20
-179.0481516802423
 30
0.0
 10
483.80744763533
 20
-178.5532453647099
 30
0.0
 10
484.0563917483203
 20
-177.7871567972655
 30
0.0
 10
484.1194989534361
 20
-177.5268039210719
 30
0.0
 10
484.2033923217569
 20
-177.0028839165834
 30
0.0
 10
484.2240177572433
 20
-176.7414326437412
 30
0.0
 10
484.2238916846104
 20
-175.9592232168887
 30
0.0
 10
484.141730694824
 20
-175.4405836576615
 30
0.0
 10
483.8922112925146
 20
-174.6696446759669
 30
0.0
 10
483.7876857608757
 20
-174.4142921179761
 30
0.0
 10
483.5407849045047
 20
-173.9175710026277
 30
0.0
 10
483.2552163097882
 20
-173.4319614210152
 30
0.0
 10
482.8933864546229
 20
-172.9689503350069
 30
0.0
 10
482.4928545868619
 20
-172.5176933240798
 30
0.0
 10
482.2718968959713
 20
-172.2968002784104
 30
0.0
 10
481.5590543009584
 20
-171.6620647659389
 30
0.0
 10
481.020883996559
 20
-171.2775458590422
 30
0.0
 10
480.1216078192983
 20
-170.7577867467216
 30
0.0
 10
479.8064021189288
 20
-170.5940938349315
 30
0.0
 10
479.1441339307942
 20
-170.286378643502
 30
0.0
 10
478.799337116465
 20
-170.1435674780528
 30
0.0
 10
477.7389869137782
 20
-169.7531063622486
 30
0.0
 10
476.9922328386625
 20
-169.540509930749
 30
0.0
 10
475.8119103157493
 20
-169.2920792380028
 30
0.0
 10
475.4061552367793
 20
-169.2208500196325
 30
0.0
 10
474.5894652054311
 20
-169.1047544593279
 30
0.0
 10
474.1776402961828
 20
-169.059541986882
 30
0.0
 10
472.931937742943
 20
-168.9609059598481
 30
0.0
 10
472.0879346807408
 20
-168.9441455101746
 30
0.0
 10
470.3715523515856
 20
-169.0089159431623
 30
0.0
 10
469.5270825604431
 20
-169.089392810802
 30
0.0
 10
468.2814043634533
 20
-169.2765532334215
 30
0.0
 10
467.8696271577697
 20
-169.3501068872102
 30
0.0
 10
467.0531072586124
 20
-169.5196473043254
 30
0.0
 10
466.6471224844582
 20
-169.6160898391916
 30
0.0
 10
465.4659539789337
 20
-169.9326635679576
 30
0.0
 10
464.7189457246764
 20
-170.1811463445551
 30
0.0
 10
463.658516330656
 20
-170.6079880727459
 30
0.0
 10
463.3141031278367
 20
-170.7598606849998
 30
0.0
 10
462.6507353702001
 20
-171.0801956387239
 30
0.0
 10
462.3350817780154
 20
-171.2469698640072
 30
0.0
 10
461.4346845288632
 20
-171.7664136019602
 30
0.0
 10
460.896064083239
 20
-172.137977105827
 30
0.0
 10
460.1827103055775
 20
-172.7346438724043
 30
0.0
 10
459.9611769852631
 20
-172.9401236830408
 30
0.0
 10
459.5597289897909
 20
-173.3554648008894
 30
0.0
 10
459.1970901102041
 20
-173.7774098747681
 30
0.0
 10
458.9108356609823
 20
-174.2129510829677
 30
0.0
 10
458.6632669065069
 20
-174.6557481298239
 30
0.0
 10
458.5584195194006
 20
-174.881993847101
 30
0.0
 10
458.3076712676665
 20
-175.5630807152009
 30
0.0
 10
458.2247990134565
 20
-176.0177039415677
 30
0.0
 10
458.2235732544672
 20
-176.7032415633434
 30
0.0
 10
458.2438270906131
 20
-176.9323571855431
 30
0.0
 10
458.3269334235702
 20
-177.3923181745815
 30
0.0
 10
458.3897032054307
 20
-177.6215981583016
 30
0.0
 10
458.6375946267825
 20
-178.2984561025694
 30
0.0
 10
458.8823723270829
 20
-178.7390963996482
 30
0.0
 10
459.3697297138229
 20
-179.3864028471339
 30
0.0
 10
459.5535664806078
 20
-179.6010102056564
 30
0.0
 10
459.955629096555
 20
-180.0179676525676
 30
0.0
 10
460.1738932884982
 20
-180.2207370315956
 30
0.0
 10
460.879177929345
 20
-180.8126441751357
 30
0.0
 10
461.416195974795
 20
-181.1855813474981
 30
0.0
 10
462.6293012485793
 20
-181.887115583702
 30
0.0
 10
463.2871611470502
 20
-182.2049701116212
 30
0.0
 10
464.3431526334965
 20
-182.6315034007154
 30
0.0
 10
464.707018939769
 20
-182.7653782490169
 30
0.0
 10
465.4589958243195
 20
-183.0159533199933
 30
0.0
 10
465.8486769112825
 20
-183.1329636842807
 30
0.0
 10
467.029783269457
 20
-183.4500986892905
 30
0.0
 10
467.8398863911387
 20
-183.6192932345548
 30
0.0
 10
469.0887924285928
 20
-183.8082304050476
 30
0.0
 10
469.5120172477658
 20
-183.8604353681726
 30
0.0
 10
470.3647631066861
 20
-183.9412647154475
 30
0.0
 10
470.789858693955
 20
-183.9695412001795
 30
0.0
 10
472.0614740346606
 20
-184.0184317660261
 30
0.0
 10
472.9043569816337
 20
-184.0034549456669
 30
0.0
 10
474.161376011688
 20
-183.9052266149898
 30
0.0
 10
474.5790804061255
 20
-183.8595794135677
 30
0.0
 10
475.3935988519009
 20
-183.744356007423
 30
0.0
 10
476.1920016491092
 20
-183.6049211036537
 30
0.0
 10
476.958690379404
 20
-183.4170822349939
 30
0.0
 10
477.7093171315499
 20
-183.2044111667393
 30
0.0
 10
478.0780847685943
 20
-183.0850956039574
 30
0.0
 10
479.1480569479444
 20
-182.6921666019245
 30
0.0
 10
479.8087199725065
 20
-182.3861486696778
 30
0.0
 10
480.4163639523802
 20
-182.035363266774
 30
0.0
  0
LINE
  5
12C
330
1F
100
AcDbEntity
  8
0
  6
Continuous
 62
     7
370
    25
100
AcDbLine
 10
428.8076709666
 20
-199.118374381
 30
0.0
 11
425.9787841056
 21
-200.7514560048
 31
0.0
  0
LWPOLYLINE
  5
12D
330
1F
100
AcDbEntity
  8
0
  6
Continuous
 62
     7
370
    25
100
AcDbPolyline
 90
       27
 70
   128
 43
0.0
 10
429.9899652819
 20
-219.1233760299
 10
434.5748592448
 20
-222.7284921542
 10
439.2875645727
 20
-226.7062741319
 10
443.9414673033
 20
-230.914425293
 10
448.525457494
 20
-235.3428998069
 10
453.0285920993
 20
-239.9811258803
 10
457.4401210951
 20
-244.8180309941
 10
461.7495131406
 20
-249.8420683366
 10
465.94648072
 20
-255.0412443682
 10
470.0210047003
 20
-260.4031474524
 10
473.9633582501
 20
-265.914977486
 10
477.7641300592
 20
-271.5635764552
 10
481.4142468056
 20
-277.3354598471
 10
484.9049948162
 20
-283.2168488406
 10
488.2280408677
 20
-289.193703199
 10
491.3754520801
 20
-295.2517547879
 10
494.3397148546
 20
-301.3765416365
 10
497.11375281
 20
-307.5534424612
 10
499.6909436758
 20
-313.7677115705
 10
502.0651351011
 20
-320.0045140659
 10
504.2306593415
 20
-326.2489612566
 10
506.1823467895
 20
-332.4861462024
 10
507.9155383156
 20
-338.7011792994
 10
509.4260963906
 20
-344.8792238254
 10
510.7104149628
 20
-351.0055313587
 10
511.7654280666
 20
-357.0654769853
 10
512.457986312
 20
-361.9776570125
  0
LINE
  5
12E
330
1F
100
AcDbEntity
  8
0
  6
Continuous
 62
     7
370
    25
100
AcDbLine
 10
510.5488789633
 20
-406.9553831194
 30
0.0
 11
509.874364169
 21
-409.4471583748
 31
0.0
  0
LINE
  5
12F
330
1F
100
AcDbEntity
  8
0
  6
Continuous
 62
     7
370
    25
100
AcDbLine
 10
477.0758280861
 20
-428.3813502299
 30
0.0
 11
512.7922959138
 21
-407.7626722338
 31
0.0
  0
LWPOLYLINE
  5
130
330
1F
100
AcDbEntity
  8
0
  6
Continuous
 62
     7
370
    25
100
AcDbPolyline
 90
       37
 70
   128
 43
0.0
 10
351.2686840707
 20
-253.9594520815
 10
351.7375923116
 20
-259.8438298259
 10
352.4456893523
 20
-265.8327511566
 10
353.3912517429
 20
-271.911639534
 10
354.5719780627
 20
-278.0656994459
 10
355.9849945216
 20
-284.2799524192
 10
357.6268619541
 20
-290.5392734757
 10
359.4935841906
 20
-296.828427945
 10
361.5806177835
 20
-303.1321085448
 10
363.8828830654
 20
-309.4349726376
 10
366.3947765128
 20
-315.7216795729
 10
369.1101843848
 20
-321.9769280256
 10
372.0224976029
 20
-328.1854932377
 10
375.1246278373
 20
-334.3322640745
 10
378.4090247595
 20
-340.4022798039
 10
381.8676944188
 20
-346.3807665091
 10
385.4922186989
 20
-352.2531730474
 10
389.2737758073
 20
-358.0052064666
 10
393.2031617464
 20
-363.6228667927
 10
397.2708127156
 20
-369.0924811046
 10
401.4668283886
 20
-374.400736813
 10
405.7809960099
 20
-379.5347140623
 10
410.202815252
 20
-384.481917176
 10
414.7215237722
 20
-389.2303050705
 10
419.3261234075
 20
-393.7683205621
 10
424.0054069428
 20
-398.084918496
 10
428.7479853886
 20
-402.1695926296
 10
433.542315701
 20
-406.0124012036
 10
438.376728876
 20
-409.6039911394
 10
443.2394583515
 20
-412.9356208039
 10
448.1186686458
 20
-415.9991812858
 10
453.0024841641
 20
-418.7872161321
 10
457.8790181032
 20
-421.2929394962
 10
462.7364013823
 20
-423.5102526547
 10
467.5628115319
 20
-425.4337588504
 10
472.3465014685
 20
-427.0587764283
 10
477.0758280861
 20
-428.3813502299
  0
LINE
  5
131
330
1F
100
AcDbEntity
  8
0
  6
Continuous
 62
     7
370
    25
100
AcDbLine
 10
389.1441664685
 20
-232.0944015039
 30
0.0
 11
351.2686840707
 21
-253.9594520815
 31
0.0
  0
LINE
  5
132
330
1F
100
AcDbEntity
  8
0
  6
Continuous
 62
     7
370
    25
100
AcDbLine
 10
351.2686840707
 20
-253.9594520815
 30
0.0
 11
346.3068669383
 21
-251.0950560214
 31
0.0
  0
LINE
  5
133
330
1F
100
AcDbEntity
  8
0
  6
Continuous
 62
     7
370
    25
100
AcDbLine
 10
477.0758280861
 20
-434.312141251
 30
0.0
 11
477.0758280861
 21
-428.3813502299
 31
0.0
  0
LINE
  5
134
330
1F
100
AcDbEntity
  8
0
  6
Continuous
 62
     7
370
    25
100
AcDbLine
 10
413.4362177793
 20
-193.5107865866
 30
0.0
 11
300.2991327895
 21
-258.8234355324
 31
0.0
  0
LINE
  5
135
330
1F
100
AcDbEntity
  8
0
  6
Continuous
 62
     7
370
    25
100
AcDbLine
 10
413.4362177793
 20
-199.2265722698
 30
0.0
 11
300.2991327895
 21
-264.5392212156
 31
0.0
  0
LINE
  5
136
330
1F
100
AcDbEntity
  8
0
  6
Continuous
 62
     7
370
    25
100
AcDbLine
 10
300.2991327895
 20
-258.8234355324
 30
0.0
 11
300.2991327895
 21
-264.5392212156
 31
0.0
  0
LINE
  5
137
330
1F
100
AcDbEntity
  8
0
  6
Continuous
 62
     7
370
    25
100
AcDbLine
 10
300.2991327895
 20
-264.5392212156
 30
0.0
 11
310.9057345073
 21
-270.6622820543
 31
0.0
  0
LINE
  5
138
330
1F
100
AcDbEntity
  8
0
  6
Continuous
 62
     7
370
    25
100
AcDbLine
 10
413.4362177793
 20
-190.2446233391
 30
0.0
 11
300.2991327895
 21
-255.5572722849
 31
0.0
  0
LINE
  5
139
330
1F
100
AcDbEntity
  8
0
  6
Continuous
 62
     7
370
    25
100
AcDbLine
 10
300.2991327895
 20
-255.5572722849
 30
0.0
 11
303.1280196506
 21
-257.1903539087
 31
0.0
  0
LINE
  5
13A
330
1F
100
AcDbEntity
  8
0
  6
Continuous
 62
     7
370
    25
100
AcDbLine
 10
413.4362177793
 20
-184.5288376559
 30
0.0
 11
300.2991327895
 21
-249.8414866017
 31
0.0
  0
LINE
  5
13B
330
1F
100
AcDbEntity
  8
0
  6
Continuous
 62
     7
370
    25
100
AcDbLine
 10
300.2991327895
 20
-249.8414866017
 30
0.0
 11
300.2991327895
 21
-255.5572722849
 31
0.0
  0
ARC
  5
13C
330
1F
100
AcDbEntity
  8
0
  6
Continuous
 62
     7
370
    25
100
AcDbCircle
 10
517.1489111228
 20
-129.9916218717
 30
0.0
 40
3.440132544473996
100
AcDbArc
 50
113.5991707576
 51
175.0806882848
  0
LWPOLYLINE
  5
13D
330
1F
100
AcDbEntity
  8
0
  6
Continuous
 62
     7
370
    25
100
AcDbPolyline
 90
       12
 70
   128
 43
0.0
 10
527.72145048
 20
-129.6966210819
 10
527.6774359493
 20
-129.2441710682
 10
527.3286337922
 20
-128.3619587737
 10
526.6485198746
 20
-127.5466720205
 10
525.6711979483
 20
-126.8391926905
 10
524.4456750156
 20
-126.2749967517
 10
523.0334039137
 20
-125.8823753443
 10
521.5052018127
 20
-125.6810161451
 10
519.9376991473
 20
-125.6810161451
 10
518.4094970463
 20
-125.8823753443
 10
516.9972259444
 20
-126.2749967517
 10
515.7717030117
 20
-126.8391926905
  0
ARC
  5
13E
330
1F
100
AcDbEntity
  8
0
  6
Continuous
 62
     7
370
    25
100
AcDbCircle
 10
471.3013666248
 20
-146.9292695521
 30
0.0
 40
24.8945064700562
100
AcDbArc
 50
68.8754257041
 51
117.2307254771
  0
ARC
  5
13F
330
1F
100
AcDbEntity
  8
0
  6
Continuous
 62
     7
370
    25
100
AcDbCircle
 10
463.8287554811
 20
-132.7660675483
 30
0.0
 40
8.883226113876088
100
AcDbArc
 50
116.174784706
 51
161.6496893905
  0
ENDSEC
  0
SECTION
  2
OBJECTS
  0
DICTIONARY
  5
C
330
0
100
AcDbDictionary
281
     1
  3
ACAD_GROUP
350
D
  3
ACAD_LAYOUT
350
1A
  3
ACAD_MLINESTYLE
350
17
  3
ACAD_PLOTSETTINGS
350
19
  3
ACAD_PLOTSTYLENAME
350
E
  3
ACAD_SCALELIST
350
47
  3
DWGPROPS
350
140
  0
DICTIONARY
  5
D
102
{ACAD_REACTORS
330
C
102
}
330
C
100
AcDbDictionary
281
     1
  0
DICTIONARY
  5
1A
102
{ACAD_REACTORS
330
C
102
}
330
C
100
AcDbDictionary
281
     1
  3
Layout1
350
1E
  3
Layout2
350
26
  3
Model
350
22
  0
DICTIONARY
  5
17
102
{ACAD_REACTORS
330
C
102
}
330
C
100
AcDbDictionary
281
     1
  3
Standard
350
18
  0
DICTIONARY
  5
19
102
{ACAD_REACTORS
330
C
102
}
330
C
100
AcDbDictionary
281
     1
  0
ACDBDICTIONARYWDFLT
  5
E
102
{ACAD_REACTORS
330
C
102
}
330
C
100
AcDbDictionary
281
     1
  3
Normal
350
F
100
AcDbDictionaryWithDefault
340
F
  0
DICTIONARY
  5
47
102
{ACAD_REACTORS
330
C
102
}
330
C
100
AcDbDictionary
281
     1
  3
A0
350
48
  3
A1
350
49
  3
A2
350
4A
  3
A3
350
4B
  3
A4
350
4C
  3
A5
350
4D
  3
A6
350
4E
  3
A7
350
4F
  3
A8
350
50
  3
A9
350
51
  3
B0
350
52
  3
B1
350
53
  3
B2
350
54
  3
B3
350
55
  3
B4
350
56
  3
B5
350
57
  3
B6
350
58
  3
B7
350
59
  3
B8
350
5A
  3
B9
350
5B
  3
C0
350
5C
  3
C1
350
5D
  3
C2
350
5E
  3
C3
350
5F
  3
C4
350
60
  3
C5
350
61
  3
C6
350
62
  3
C7
350
63
  3
C8
350
64
  3
C9
350
65
  3
D0
350
66
  3
D1
350
67
  3
D2
350
68
  0
XRECORD
  5
140
102
{ACAD_REACTORS
330
C
102
}
330
C
100
AcDbXrecord
280
     1
  1
DWGPROPS COOKIE
  2

  3

  4

  6

  7

  8
b.kav
  9

300
=
301
=
302
=
303
=
304
=
305
=
306
=
307
=
308
=
309
=
 40
0.0
 41
2459741.489642234
 42
2459741.489642419
  1

 90
        0
  0
LAYOUT
  5
1E
102
{ACAD_REACTORS
330
1A
102
}
330
1A
100
AcDbPlotSettings
  1

  2
none_device
  4

  6

 40
0.0
 41
0.0
 42
0.0
 43
0.0
 44
0.0
 45
0.0
 46
0.0
 47
0.0
 48
0.0
 49
0.0
140
0.0
141
0.0
142
1.0
143
1.0
 70
   688
 72
     1
 73
     0
 74
     5
  7

 75
    16
147
1.0
148
0.0
149
0.0
100
AcDbLayout
  1
Layout1
 70
     1
 71
     1
 10
0.0
 20
0.0
 11
420.0
 21
297.0
 12
0.0
 22
0.0
 32
0.0
 14
1.0000000000E+20
 24
1.0000000000E+20
 34
1.0000000000E+20
 15
-1.0000000000E+20
 25
-1.0000000000E+20
 35
-1.0000000000E+20
146
0.0
 13
0.0
 23
0.0
 33
0.0
 16
1.0
 26
0.0
 36
0.0
 17
0.0
 27
1.0
 37
0.0
 76
     0
330
1B
  0
LAYOUT
  5
26
102
{ACAD_REACTORS
330
1A
102
}
330
1A
100
AcDbPlotSettings
  1

  2
none_device
  4

  6

 40
0.0
 41
0.0
 42
0.0
 43
0.0
 44
0.0
 45
0.0
 46
0.0
 47
0.0
 48
0.0
 49
0.0
140
0.0
141
0.0
142
1.0
143
1.0
 70
   688
 72
     1
 73
     0
 74
     5
  7

 75
    16
147
1.0
148
0.0
149
0.0
100
AcDbLayout
  1
Layout2
 70
     1
 71
     2
 10
0.0
 20
0.0
 11
0.0
 21
0.0
 12
0.0
 22
0.0
 32
0.0
 14
0.0
 24
0.0
 34
0.0
 15
0.0
 25
0.0
 35
0.0
146
0.0
 13
0.0
 23
0.0
 33
0.0
 16
1.0
 26
0.0
 36
0.0
 17
0.0
 27
1.0
 37
0.0
 76
     0
330
23
  0
LAYOUT
  5
22
102
{ACAD_REACTORS
330
1A
102
}
330
1A
100
AcDbPlotSettings
  1

  2
none_device
  4
Letter_(8.50_x_11.00_Inches)
  6

 40
6.35
 41
6.35
 42
6.35000508
 43
6.35000508
 44
215.9
 45
279.4
 46
0.0
 47
0.0
 48
0.0
 49
0.0
140
0.0
141
0.0
142
1.0
143
1.0
 70
  1712
 72
     1
 73
     0
 74
     0
  7

 75
     0
147
1.0
148
0.0
149
0.0
100
AcDbLayout
  1
Model
 70
     1
 71
     0
 10
0.0
 20
0.0
 11
279.4
 21
215.9
 12
0.0
 22
0.0
 32
0.0
 14
0.0
 24
0.0
 34
0.0
 15
279.4
 25
215.9
 35
0.0
146
0.0
 13
0.0
 23
0.0
 33
0.0
 16
1.0
 26
0.0
 36
0.0
 17
0.0
 27
1.0
 37
0.0
 76
     0
330
1F
331
29
  0
MLINESTYLE
  5
18
102
{ACAD_REACTORS
330
17
102
}
330
17
100
AcDbMlineStyle
  2
Standard
 70
     0
  3

 62
   256
 51
90.0
 52
90.0
 71
     2
 49
0.5
 62
   256
  6
BYLAYER
 49
-0.5
 62
   256
  6
BYLAYER
  0
ACDBPLACEHOLDER
  5
F
102
{ACAD_REACTORS
330
E
102
}
330
E
  0
SCALE
  5
48
102
{ACAD_REACTORS
330
47
102
}
330
47
100
AcDbScale
 70
     0
300
1:1
140
1.0
141
1.0
290
     1
  0
SCALE
  5
49
102
{ACAD_REACTORS
330
47
102
}
330
47
100
AcDbScale
 70
     0
300
1:2
140
1.0
141
2.0
290
     0
  0
SCALE
  5
4A
102
{ACAD_REACTORS
330
47
102
}
330
47
100
AcDbScale
 70
     0
300
1:4
140
1.0
141
4.0
290
     0
  0
SCALE
  5
4B
102
{ACAD_REACTORS
330
47
102
}
330
47
100
AcDbScale
 70
     0
300
1:5
140
1.0
141
5.0
290
     0
  0
SCALE
  5
4C
102
{ACAD_REACTORS
330
47
102
}
330
47
100
AcDbScale
 70
     0
300
1:8
140
1.0
141
8.0
290
     0
  0
SCALE
  5
4D
102
{ACAD_REACTORS
330
47
102
}
330
47
100
AcDbScale
 70
     0
300
1:10
140
1.0
141
10.0
290
     0
  0
SCALE
  5
4E
102
{ACAD_REACTORS
330
47
102
}
330
47
100
AcDbScale
 70
     0
300
1:16
140
1.0
141
16.0
290
     0
  0
SCALE
  5
4F
102
{ACAD_REACTORS
330
47
102
}
330
47
100
AcDbScale
 70
     0
300
1:20
140
1.0
141
20.0
290
     0
  0
SCALE
  5
50
102
{ACAD_REACTORS
330
47
102
}
330
47
100
AcDbScale
 70
     0
300
1:30
140
1.0
141
30.0
290
     0
  0
SCALE
  5
51
102
{ACAD_REACTORS
330
47
102
}
330
47
100
AcDbScale
 70
     0
300
1:40
140
1.0
141
40.0
290
     0
  0
SCALE
  5
52
102
{ACAD_REACTORS
330
47
102
}
330
47
100
AcDbScale
 70
     0
300
1:50
140
1.0
141
50.0
290
     0
  0
SCALE
  5
53
102
{ACAD_REACTORS
330
47
102
}
330
47
100
AcDbScale
 70
     0
300
1:100
140
1.0
141
100.0
290
     0
  0
SCALE
  5
54
102
{ACAD_REACTORS
330
47
102
}
330
47
100
AcDbScale
 70
     0
300
2:1
140
2.0
141
1.0
290
     0
  0
SCALE
  5
55
102
{ACAD_REACTORS
330
47
102
}
330
47
100
AcDbScale
 70
     0
300
4:1
140
4.0
141
1.0
290
     0
  0
SCALE
  5
56
102
{ACAD_REACTORS
330
47
102
}
330
47
100
AcDbScale
 70
     0
300
8:1
140
8.0
141
1.0
290
     0
  0
SCALE
  5
57
102
{ACAD_REACTORS
330
47
102
}
330
47
100
AcDbScale
 70
     0
300
10:1
140
10.0
141
1.0
290
     0
  0
SCALE
  5
58
102
{ACAD_REACTORS
330
47
102
}
330
47
100
AcDbScale
 70
     0
300
100:1
140
100.0
141
1.0
290
     0
  0
SCALE
  5
59
102
{ACAD_REACTORS
330
47
102
}
330
47
100
AcDbScale
 70
     0
300
1/128" = 1'-0"
140
0.0078125
141
12.0
290
     0
  0
SCALE
  5
5A
102
{ACAD_REACTORS
330
47
102
}
330
47
100
AcDbScale
 70
     0
300
1/64" = 1'-0"
140
0.015625
141
12.0
290
     0
  0
SCALE
  5
5B
102
{ACAD_REACTORS
330
47
102
}
330
47
100
AcDbScale
 70
     0
300
1/32" = 1'-0"
140
0.03125
141
12.0
290
     0
  0
SCALE
  5
5C
102
{ACAD_REACTORS
330
47
102
}
330
47
100
AcDbScale
 70
     0
300
1/16" = 1'-0"
140
0.0625
141
12.0
290
     0
  0
SCALE
  5
5D
102
{ACAD_REACTORS
330
47
102
}
330
47
100
AcDbScale
 70
     0
300
3/32" = 1'-0"
140
0.09375
141
12.0
290
     0
  0
SCALE
  5
5E
102
{ACAD_REACTORS
330
47
102
}
330
47
100
AcDbScale
 70
     0
300
1/8" = 1'-0"
140
0.125
141
12.0
290
     0
  0
SCALE
  5
5F
102
{ACAD_REACTORS
330
47
102
}
330
47
100
AcDbScale
 70
     0
300
3/16" = 1'-0"
140
0.1875
141
12.0
290
     0
  0
SCALE
  5
60
102
{ACAD_REACTORS
330
47
102
}
330
47
100
AcDbScale
 70
     0
300
1/4" = 1'-0"
140
0.25
141
12.0
290
     0
  0
SCALE
  5
61
102
{ACAD_REACTORS
330
47
102
}
330
47
100
AcDbScale
 70
     0
300
3/8" = 1'-0"
140
0.375
141
12.0
290
     0
  0
SCALE
  5
62
102
{ACAD_REACTORS
330
47
102
}
330
47
100
AcDbScale
 70
     0
300
1/2" = 1'-0"
140
0.5
141
12.0
290
     0
  0
SCALE
  5
63
102
{ACAD_REACTORS
330
47
102
}
330
47
100
AcDbScale
 70
     0
300
3/4" = 1'-0"
140
0.75
141
12.0
290
     0
  0
SCALE
  5
64
102
{ACAD_REACTORS
330
47
102
}
330
47
100
AcDbScale
 70
     0
300
1" = 1'-0"
140
1.0
141
12.0
290
     0
  0
SCALE
  5
65
102
{ACAD_REACTORS
330
47
102
}
330
47
100
AcDbScale
 70
     0
300
1-1/2" = 1'-0"
140
1.5
141
12.0
290
     0
  0
SCALE
  5
66
102
{ACAD_REACTORS
330
47
102
}
330
47
100
AcDbScale
 70
     0
300
3" = 1'-0"
140
3.0
141
12.0
290
     0
  0
SCALE
  5
67
102
{ACAD_REACTORS
330
47
102
}
330
47
100
AcDbScale
 70
     0
300
6" = 1'-0"
140
6.0
141
12.0
290
     0
  0
SCALE
  5
68
102
{ACAD_REACTORS
330
47
102
}
330
47
100
AcDbScale
 70
     0
300
1'-0" = 1'-0"
140
12.0
141
12.0
290
     0
  0
ENDSEC
  0
EOF
